» » »

Red Hot Chili Peppers - Strip My Mind Tabs

Artists:  A B C D E F G H I J K L M N O P Q R S T U V W X Y Z # 

Strip My Mind Tabs

(ver. 1) Click to play this song!
Red Hot Chili Peppers
 Rating:
4/5 (4 votes)

 Strip My Mind  lessons Tabs too difficult? Try these video lessons and learn fast
 
                Tuning: Standard E A D G B e

[Chords Notation]

    Am   Em   F    C   Dm    G
e|--0----0----1----0----1----3------------------------------------------------|
B|--1----0----1----1----3----3------------------------------------------------|
G|--2----0----2----0----2----0------------------------------------------------|
D|--2----2----3----2----0----0------------------------------------------------|
A|--0----2----3----3----0----2------------------------------------------------|
E|-------0----1--------------3------------------------------------------------|

[Intro]

[Verse 1]

Am       Em    F    C
   Arthur J did indicated
    Dm
The boulevard would never be
   Am
So full of love and life again
C      G
(yeah, yeah)

[Verse 2]
Am        Em   F      C
   Hot as hades early eightes
Dm
Sign another song and make me
Am
Feel like I'm in love again
C      G
(yeah, yeah)

[Bridge]

Am    C
Oooh, yea
Am
Oooooh

[Chorus]

Am           G        F
Please don't strip my mind
Am        G       F
Leave something behind
Am           G        F
Please don't strip my mind

[Solo 1]
(An organ guitar effect is used here, something that adds an octave
or an octave and other backgrounds for every note. But here are the base notes.)

e|--------------------------------------------------------------|
B|-----5--------------------------------------------------------|
G|-5-------4-------7-7b9b7-5-5----------------------------------|
D|-----------------------------7-5------------------------------|
A|--------------------------------------------------------------|
E|--------------------------------------------------------------|

e|--------------------------------------------------------------|
B|-------5--------------5---------------5-----------------------|
G|----7-----7--5------7-----7--5------------7-------------------|
D|-7--------------7---------------7-----------------------------|
A|--------------------------------------------------------------|
E|--------------------------------------------------------------|

[Verse 3]
Am        Em   F           C
   All in favor sign the waiver
Dm
Bloody carolina won't you
Am
Take another look inside
C      G
(yeah, yeah)

[Verse 4]

(Another guitar track, very similar to Solo 1 is playing together
with the chords.)

Am    Em    F     C
   Operator, co-creator
Dm
Come on radiotor won't you
Am
Blow another top and sing
C      G
(yeah, yeah)

[Bridge]

Am    C
Oooh, yea
Am
Oooooh

[Chorus]

   Am           G        F
   Please don't strip my mind

e|-15-----14----12----15----------------------------------------|
B|-----------------------13-------------------------------------|
G|--------------------------------------------------------------|
D|--------------------------------------------------------------|
A|--------------------------------------------------------------|
E|--------------------------------------------------------------|

   Am        G        F
   Leave something beehind

e|--------------------------------------------------------------|
B|-13----12--10----10-13----------------------------------------|
G|--------------------------------------------------------------|
D|--------------------------------------------------------------|
A|--------------------------------------------------------------|
E|--------------------------------------------------------------|

   Am           G        F
   Please don't strip my mind

e|--------------------------------------------------------------|
B|-13--------10----10-13----------------------------------------|
G|--------12----------------------------------------------------|
D|--------------------------------------------------------------|
A|--------------------------------------------------------------|
E|--------------------------------------------------------------|

[Solo]

e|----------------------------------------------------------------------------|
B|----------------------------------------------------------------------------|
G|-7b9-------9b7--5-5-------7---5h7--7b9b7--5--7---5h7--7b9b7--5--7----7b9----9b7-|
D|----------------------------------------------------------------------------|
A|----------------------------------------------------------------------------|
E|----------------------------------------------------------------------------|

e|-----------15---------------------------------------------------------------|
B|---------------20b22b20-17-17---20b22b20------------------------------------|
G|-19b21------------------------------------19b21b91--17-17-------------------|
D|----------------------------------------------------------------------------|
A|----------------------------------------------------------------------------|
E|----------------------------------------------------------------------------|

e|----------------------------------------------------------------------------|
B|----------------------------------------------------------------------------|
G|-----17h19--19b21b19-17------17h19--19b21b19-17------------19b21b22b19------|
D|-19---------------------19----------------------19--------------------------|
A|----------------------------------------------------------------------------|
E|----------------------------------------------------------------------------|

[Verse 4]

Am      Em  F        C
   El dorado won the lotto
Dm                
All that cash and not a clue
    Am
But now you know what I've been through
C      G
(yeah, yeah)

[Bridge]

Am    C
Oooh, yea
Am
Oooooh

[Chorus]

(with organ sounding track like the chorus before)

Am           G        F
Please don't strip my mind
Am        G       F
Leave something behind
Am           G        F
Please don't strip my mind
Am        G       F
Leave something behind
            
Submit corrections


        Strip My Mind  lessons Hard to play? Try these video lessons and learn fast Strip My Mind  lessons
        
↑ Back to top | Tablatures and chords for acoustic guitar and electric guitar, ukulele, drums are parodies/interpretations of the original songs. You may use it for private study, scholarship, research or language learning purposes only