» » »

Red Hot Chili Peppers - Show Me Your Soul Tabs

Artists:  A B C D E F G H I J K L M N O P Q R S T U V W X Y Z # 

Show Me Your Soul Tabs

(ver. 1) Click to play this song!
Red Hot Chili Peppers
 Rating:
4.3/5 (22 votes)

 Show Me Your Soul lessons Tabs too difficult? Try these video lessons and learn fast
 
                [Intro]

E-|-------|--12-|--15--|
B-|-10----|--12-|--15--|
G-|-10----|-----|------|
D-|-10----|-----|------|
A-|-------|-----|------|
E-|-10----|-----|------|


[Verse]

(part 1)

E-|-------------------------------------|
B-|-20--x--19--x--20--x--19--x--17--19--|
G-|-17--x--17--x--17--x--17--x--17--17--|
D-|-------------------------------------|
A-|-------------------------------------|
E-|-------------------------------------|

E-|---------------------------------|
B-|-20--x--19--x--20--x--19--x--17--|
G-|-17--x--17--x--17--x--17--x--17--|
D-|---------------------------------|
A-|---------------------------------|
E-|---------------------------------|

(ENDING)

E-|-20-20-20-20-20-20-20-20--|
B-|-19-19-19-19-19-19-19-19--|
G-|-19-19-19-19-19-19-19-19--|
D-|--------------------------|
A-|--------------------------|
E-|--------------------------|  


[Verse]

(Part 2)

E-|-5------5--5----|--5-------------7--7-------|
B-|-5------5--5----|--5------x-x-x--5--5-------|
G-|-5------5--5----|--5------x-x-x--5--5-------|
D-|----------------|---------------------------|
A-|----------------|---------------------------|
E-|----------------|---------------------------|


[Chorus]

E-|--------------------------------|--8--x-x-x-x--8/10/8--------------|
B-|-6--x-x-x-x--6/8\6--------------|--8--x-x-x-x--8/10/8--------------|
G-|-5--x-x-x-x--5/7\5--------------|----------------------------------|
D-|-x--x-x-x-x--x------------------|7---------------------------------|
A-|-5-----------5/7\5--------------|----------------------------------|
E-|--------------------------------|----------------------------------|


(ENDING)

E-|-10-|----|----|
B-|-11-|-10-|-13-|
G-|-10-|-10-|-12-|
D-|-12-|-10-|-12-|
A-|----|----|----|
E-|----|----|----|


[Interlude]

HARMONIC BEHIND NUT ON THE E STRING V RIGHT AFTER PLAYING THIS FIGURE 4 TIMES (I marked it with a "v")
E-|----------------|-----------------|-----------------|-----------------|-----------------|
B-|-6-6----6-6-----|----6-6----6-6-----|--6-6----6-6-----|--6-6----6-6-----|--6-6----6-6-----|
G-|-5-5----5-5-----|----5-5----5-5-----|--5-5----5-5-----|--5-5----5-5-----|--5-5----5-5-----|
D-|-5-5----5-5-----|----5-5----5-5-----|--5-5----5-5-----|--5-5----5-5-----|--5-5----5-5-----|
A-|----------------|-------------------|-----------------|-----------------|-----------------|
E-|----------------|-------------------|-----------------|-----------------|-----------------|

E-|----------------|-----------------|-------------------------|
B-|-6-6----6-6-----|--6-6----6-6-----|--6-6-6-6-6-6-6-6--------|
G-|-5-5----5-5-----|--5-5----5-5-----|--5-5-5-5-5-5-5-5--------|
D-|-5-5----5-5-----|--5-5----5-5-----|--5-5-5-5-5-5-5-5--------|
A-|----------------|-----------------|-------------------------|
E-|----------------|-----------------|-------------------------|


[Bridge]

guitar 1:
E-|----------------------------------------|-------------------------------------------------|
B-|----------------------------------------|-------------------------------------------------|
G-|----------------------------------------|-------------------------------------------------|
D-|----------------------------------------|-------------------------------------------------|
A-|--5h7--5h7--4--5------------------------|--5h7--5h7--4--5---------------------5-----------|
E-|------------------------4\3-----5-------|---------------------------5\3----5/7---7--------|


guitar 2:
E-|--------------------|--3-3-3-3-3-3-3-3--|-------------------|--3-3-3-3-3-3-3-3--|
B-|--------------------|--3-3-3-3-3-3-3-3--|-------------------|--3-3-3-3-3-3-3-3--| 


guitar 1:
E-|----------------------------------------|---------------------------*---------------------|
B-|----------------------------------------|---------------------------*---------------------|
G-|----------------------------------------|-------------------------------------------------|
D-|----------------------------------------|-------------------------------------------------|
A-|--5h7--5h7--4--5------------------------|--5h7--5h7--4--5---------------------5-----------|
E-|------------------------4\3-----5-------|---------------------------5\3----5/7---7--------|



guitar 2:
E-|--------------------|--3-3-3-3-3-3-3-3--|-------------------|--5-5-5-5-5-5-5-5--|
B-|--------------------|--3-3-3-3-3-3-3-3--|-------------------|--5-5-5-5-5-5-5-5--| 


guitar 1:
E-|-----------------------------------|-------------------|---------|
B-|-----------------------------------|-------------------|---------|
G-|-----------------------------------|-------------------|---------|
D-|-----------------------------------|-------------------|---------|
A-|--5h7--5h7--4--5-------------------|--5----5--6--7-----|---------|
E-|-----------------------4/3--5------|-------------------|--3/16\--|


[Solo]

(interlude chords)

guitar:2
E-|----------------|-----------------|-----------------|
B-|-6-6----6-6-----|--6-6----6-6-----|--6-6----6-6-----|
G-|-5-5----5-5-----|--5-5----5-5-----|--5-5----5-5-----|
D-|-5-5----5-5-----|--5-5----5-5-----|--5-5----5-5-----|
A-|----------------|-----------------|-----------------|
E-|----------------|-----------------|-----------------|

guitar:1 LOTS OF FEED BACK!
E-|------------------|--------------------|
B-|------------------|--------------------|
G-|--17--16h17p16--14|-17--16--14--12B14--|
D-|------------------|--------------------|
A-|------------------|--------------------|
E-|------------------|--------------------|

There's a short "HEY NAH NAH" vocal section
That is just continuous slow whole step bends on the 15th fret of the b string.
then to end that phrase, John plays this:

E-|----------------------|
B-|----------------------|
G-|--12--12--14--12--14--|
D-|----------------------|
A-|----------------------|
E-|----------------------|


[Rest of Solo]

E-|---------------------------------------|---------------------------------------|
B-|-15-----------------x-x-x-x-x-x--------|--15----------------x-x-x-x-x-x--------|
G-|-----12--11---------x-x-x-x-x-x--------|------12--11--------11-11-11-11--------|
D-|--------------------x-x-x-x-x-x--------|--------------------x-x-x-x-x-x--------|
A-|---------------------------------------|---------------------------------------|
E-|---------------------------------------|---------------------------------------|

E-|-----------------------------|-------------|--17b19-----17b19--17--17b9--15h17---------------|
B-|--------------------15-------|-x-x-x-x-x-x-|-------------------------------------------------|
G-|-14--11--14--11-------14(----|-x-x-x-x-x-x-|-------------------------------------------------|
D-|-----------------------------|-x-x-x-x-x-x-|-------------------------------------------------|
A-|-----------------------------|-------------|-------------------------------------------------|
E-|-----------------------------|-------------|-------------------------------------------------|

E-|----------------------------------------------------------------------------------------------------------|
B-|----------------------------------------------------------------------------------------------------------|
G-|----------------------------------------------------------------------------------------------------------|
D-|--7b8--7-5-7-5-----------2-2--8-7-5h7p5-----------2-2---7b8-7-5-7-5---5h7p5h7p5-(--Do this trill for as -)|
A-|----------------7-----------------------7---------------------------7-------------(----long as needed----)|
E-|-------------------0-0-0------------------0-0-0-----------------------------------------------------------|
       (TREMOLO PICKING)these figures are not exact but listen to the song, you'll know how long to pick for
E-|---------------x-x----------------------------------------------------------------------------------------|
B-|---------------x-x--------------------------------------15-15-15-15-15-15-15-17-17-17-17-17-17-15-15-15-15|
G-|--6-7b9-7-6----x-x--14b16-14-12-14-12b14-14-14-14-14-14-14------------------------------------------------|
D-|---------------x-x----------------------------------------------------------------------------------------|
A-|---------------x-x----------------------------------------------------------------------------------------|
E-|---------------x-x----------------------------------------------------------------------------------------|

E-|----------------------------------------------------------------------------------------------------------|
B-|--12-12-12-12-12-12-12-10-10-10-10-10-10-8-8-8-8-8-8-8-8-10-10-10-10-10-10-12-12-12-12-12-12-12-8-8-8-8-8-|
G-|----------------------------------------------------------------------------------------------------------|
D-|----------------------------------------------------------------------------------------------------------|
A-|----------------------------------------------------------------------------------------------------------|
E-|----------------------------------------------------------------------------------------------------------|

E-|-------------------------|
B-|-2b3-2b3-0h2p0-2b3-2b3---|
G-|-------------------------|
D-|-------------------------|  Song Fades With This Phrase. AND YOU'RE DONE!
A-|-------------------------|
E-|-------------------------|            
Submit corrections


        Show Me Your Soul lessons Hard to play? Try these video lessons and learn fast Show Me Your Soul lessons
        
↑ Back to top | Tablatures and chords for acoustic guitar and electric guitar, ukulele, drums are parodies/interpretations of the original songs. You may use it for private study, scholarship, research or language learning purposes only