Home » R » Red Hot Chili Peppers »

Red Hot Chili Peppers - Scar Tissue Ukulele

Artists:  A B C D E F G H I J K L M N O P Q R S T U V W X Y Z # 

Scar Tissue Ukulele

(ver. 1) Click to play this song!
Red Hot Chili Peppers
 Rating:
4/5 (4 votes)
                |----0--0--0---0--------------------------|
|-1---1--1--1------0--0/1--1--1--1---1\0--| 
|-0----------------0--0/2--22--2--2-------|
|-----------------------------------------|


|----0--0--0---0-0------------------------|
|-1---1--1--1-------3-1---3\1-3\1---------| 
|-0---------------------------------------|
|-----------------------------------------|

F
Scar tissue that I wish you saw
Dm
Sarcastic mister know it all
F
Close your eyes and I'll kiss you 'cause
Dm
With the birds I'll share
F                              Dm
With the birds I'll share this lonely view
F                              Dm
With the birds I'll share this lonely view

F
Push me up against the wall
Dm
Young Kentucky girl in a push-up bra
F
Fallin' all over myself
Dm
To lick your heart and taste your health 'cause
F                              Dm
With the birds I'll share this lonely view and
F                              Dm
With the birds I'll share this lonely view and
F                              Dm
With the birds I'll share this lonely view...

Dm  Dm  C  Dm
|-----------------------------|
|--8\5--5\3---3/5--5/7/8------| 
|-----------------------------|
|-----------------------------|

F               
Blood loss in a bathroom stall
Dm
Southern girl with a scarlet drawl
F
Wave good-bye to ma and pa 'cause
Dm
With the birds I'll share
F                              Dm
With the birds I'll share this lonely view and
F                              Dm
With the birds I'll share this lonely view

F
Soft spoken with a broken jaw
Dm
Step outside but not to brawl
F
Autumn's sweet we call it fall
Dm
I'll make it to the moon if I have to crawl and
F                              Dm
With the birds I'll share this lonely view and
F                              Dm
With the birds I'll share this lonely view and
F                              Dm
With the birds I'll share this lonely view...

Dm Dm C Dm    Dm Dm C Dm
|-3/5-5-------------------------3/5-7--------------------------5/7-7/8-8---|
|--------8\5-5---5\3-3---8\5-5---------8\5-5---8\3---8\5-------------------| 
|--------------------------------------------------------------------------|
|--------------------------------------------------------------------------|

F
Scar tissue that I wish you saw
Dm
Sarcastic mister know it all
F
Close your eyes and I'll kiss you 'cause
Dm
With the birds I'll share
F                              Dm
With the birds I'll share this lonely view and
F                              Dm
with the birds I'll share this lonely view...


Chord progression for solo is Dm Dm C Dm on repeat

|---10/12--12\10-10--10/12-7--7/8--5---3/5-5\3-3/5-5--5-------------------------------|
|-------------------------------------------------------8\5--5/8-3--3/8-5-------------| 
|-------------------------------------------------------------------------------------|
|-------------------------------------------------------------------------------------|

|-----------------------------------------------------8-7-3--3/5----------------------|
|----------3/5--5-5-5----------------------------3/5--------------3/5-5/8-8\3---3/5---|
|--2/4-2---------------2/4-2--2/4--0-0-0/2--------------------------------------------|
|------------------------------------------2------------------------------------------|            
Submit corrections

↑ Back to top | Tablatures and chords for acoustic guitar and electric guitar, ukulele, drums are parodies/interpretations of the original songs. You may use it for private study, scholarship, research or language learning purposes only