» » »

Red Hot Chili Peppers - Go Robot Tabs

Artists:  A B C D E F G H I J K L M N O P Q R S T U V W X Y Z # 

Go Robot Tabs

(ver. 1) Click to play this song!
Red Hot Chili Peppers
 Rating:
4.3/5 (20 votes)

 Go Robot  lessons Tabs too difficult? Try these video lessons and learn fast
 
                Guitar comes in in Chorus/Bridge and Outro

[Intro]

[Verse A]

[Verse B]

[Verse A]

[Verse B]

[Chorus]

e|--13---13-x-13-----16------------------x-----------------------------------|
B|--13---13-x-13-----16------------------x-----------------------------------|
G|--13---13-x-13-----15-------13-15-13b--x-----------------------------------|
D|-------------------------15------------------------------------------------|
A|---------------------------------------------------------------------------|
E|---------------------------------------------------------------------------|

e|--13---13-x-13-----18------------------------------------------------------|
B|--13---13-x-13-----18------------------------------------------------------|
G|--13---13-x-13-----17-------13-15-15b-13-----------------------------------|
D|-----------------------(15)------------------------------------------------|
A|---------------------------------------------------------------------------|
E|---------------------------------------------------------------------------|

e|--13---13-x-13-----16---------------------x--------------------------------|
B|--13---13-x-13-----16---------------------x--------------------------------|
G|--13---13-x-13-----15----13-15-15-15-13b--x--------------------------------|
D|----------------------15---------------------------------------------------|
A|---------------------------------------------------------------------------|
E|---------------------------------------------------------------------------|

e|--13---13-x-13-----18------------------------------------------------------|
B|--13---13-x-13-----18------------------------------------------------------|
G|--13---13-x-13-----17-------13----15b-13-----------------------------------|
D|-----------------------(15)------------------------------------------------|
A|---------------------------------------------------------------------------|
E|---------------------------------------------------------------------------|


repeat Chorus Riff 1x

[Verse A]

[Verse B]

[Chorus]

e|--13---13-x-13-----16------------------x-----------------------------------|
B|--13---13-x-13-----16------------------x-----------------------------------|
G|--13---13-x-13-----15-------13-15-13b--x-----------------------------------|
D|-------------------------15------------------------------------------------|
A|---------------------------------------------------------------------------|
E|---------------------------------------------------------------------------|

e|--13---13-x-13-----18------------------------------------------------------|
B|--13---13-x-13-----18------------------------------------------------------|
G|--13---13-x-13-----17-------13-15-15b-13-----------------------------------|
D|-----------------------(15)------------------------------------------------|
A|---------------------------------------------------------------------------|
E|---------------------------------------------------------------------------|

e|--13---13-x-13-----16---------------------x--------------------------------|
B|--13---13-x-13-----16---------------------x--------------------------------|
G|--13---13-x-13-----15----13-15-15-15-13b--x--------------------------------|
D|----------------------15---------------------------------------------------|
A|---------------------------------------------------------------------------|
E|---------------------------------------------------------------------------|

e|--13---13-x-13-----18------------------------------------------------------|
B|--13---13-x-13-----18------------------------------------------------------|
G|--13---13-x-13-----17-------13----15b-13-----------------------------------|
D|-----------------------(15)------------------------------------------------|
A|---------------------------------------------------------------------------|
E|---------------------------------------------------------------------------|

repeat Chorus Riff 1x

[Bridge]

e|--8-----8---6---8-----13---11----------------------------------------------|
B|--8-----8---6---8-----13---11----------------------------------------------|
G|---------------------------------------------------------------------------|
D|---------------------------------------------------------------------------|
A|---------------------------------------------------------------------------|
E|---------------------------------------------------------------------------|

or play it like this

e|--8-----8---6---8-----13---11----------------------------------------------|
B|--8-----8---6---8-----13---11----------------------------------------------|
G|--8-----8---7---8-----12---10----------------------------------------------|
D|---------------------------------------------------------------------------|
A|---------------------------------------------------------------------------|
E|---------------------------------------------------------------------------|

[Verse A]

[Verse B]

[Chorus]

e|--13---13-x-13-----16------------------x-----------------------------------|
B|--13---13-x-13-----16------------------x-----------------------------------|
G|--13---13-x-13-----15-------13-15-13b--x-----------------------------------|
D|-------------------------15------------------------------------------------|
A|---------------------------------------------------------------------------|
E|---------------------------------------------------------------------------|

e|--13---13-x-13-----18------------------------------------------------------|
B|--13---13-x-13-----18------------------------------------------------------|
G|--13---13-x-13-----17-------13-15-15b-13-----------------------------------|
D|-----------------------(15)------------------------------------------------|
A|---------------------------------------------------------------------------|
E|---------------------------------------------------------------------------|

e|--13---13-x-13-----16---------------------x--------------------------------|
B|--13---13-x-13-----16---------------------x--------------------------------|
G|--13---13-x-13-----15----13-15-15-15-13b--x--------------------------------|
D|----------------------15---------------------------------------------------|
A|---------------------------------------------------------------------------|
E|---------------------------------------------------------------------------|

e|--13---13-x-13-----18------------------------------------------------------|
B|--13---13-x-13-----18------------------------------------------------------|
G|--13---13-x-13-----17-------13----15b-13-----------------------------------|
D|-----------------------(15)------------------------------------------------|
A|---------------------------------------------------------------------------|
E|---------------------------------------------------------------------------|

repeat Chorus Riff 1x


[Outro]

e|--8-----8---6---8-----13---11----------------------------------------------|
B|--8-----8---6---8-----13---11----------------------------------------------|
G|---------------------------------------------------------------------------|
D|---------------------------------------------------------------------------|
A|---------------------------------------------------------------------------|
E|---------------------------------------------------------------------------|

or play it like this

e|--8-----8---6---8-----13---11----------------------------------------------|
B|--8-----8---6---8-----13---11----------------------------------------------|
G|--8-----8---7---8-----12---10----------------------------------------------|
D|---------------------------------------------------------------------------|
A|---------------------------------------------------------------------------|
E|---------------------------------------------------------------------------|            
Submit corrections


        Go Robot  lessons Hard to play? Try these video lessons and learn fast Go Robot  lessons
        
↑ Back to top | Tablatures and chords for acoustic guitar and electric guitar, ukulele, drums are parodies/interpretations of the original songs. You may use it for private study, scholarship, research or language learning purposes only