» » »

Red Hot Chili Peppers - Detroit Tabs

Artists:  A B C D E F G H I J K L M N O P Q R S T U V W X Y Z # 

Detroit Tabs

(ver. 1) Click to play this song!
Red Hot Chili Peppers
 Rating:
4.3/5 (9 votes)

 Detroit  lessons Tabs too difficult? Try these video lessons and learn fast
 
                Main riff
e|---------------------------------------------------------------|
B|---------------------------------------------------------------|
G|---------------------------------------------------------------|
D|---------------------------------------------------------------|
A|-7------7------7-7----7----------------------------------------|
E|---0--0---0--------0-------------------------------------------|

Intro
e|---------------------------------------------------------------|
B|---------------------------------------------------------------|
G|---------------------------------------------------------------|
D|---------------------------------------------------------------|
A|--------7------7-7----7----------------------------------------|
E|---0--0---0--------0-------------------------------------------|

Pre-Chorus
e|---------------------------------------------------------------|
B|---------------------------------------------------------------|
G|--5-5-5-5------------------------------------------------------|
D|--5-5-5-5-5-5-7------------------------------------------------|
A|--3-3-3-3-5-5-7------7---------7----7--------------------------|
E|----------3-3-5--0-0---0-0-------0-----------------------------|

Chorus
e|---------------------------------------------------------------|
B|---------------------------------------------------------------|
G|--7--7--11-----14--16------------------------------------------|
D|--9--8--12-----16--17------------------------------------------|
A|---------------------------------------------------------------|
E|---------------------------------------------------------------|

Bridge-ish:
There is a part around the 2 min mark where Josh plays repeatedly
the rhythm is fast and syncopated so listen to it carefully.
e|---------------------------------------------------------------|
B|---------------------------------------------------------------|
G|---------------------------------------------------------------|
D|---------------------------------------------------------------|
A|--10-----------------------------------------------------------|
E|---------------------------------------------------------------|            
Submit corrections


        Detroit  lessons Hard to play? Try these video lessons and learn fast Detroit  lessons
        
↑ Back to top | Tablatures and chords for acoustic guitar and electric guitar, ukulele, drums are parodies/interpretations of the original songs. You may use it for private study, scholarship, research or language learning purposes only