» » »

Red Hot Chili Peppers - Dark Necessities Bass

Artists:  A B C D E F G H I J K L M N O P Q R S T U V W X Y Z # 

Dark Necessities Bass

(ver. 1) Click to play this song!
Red Hot Chili Peppers
 Rating:
4.4/5 (17 votes)

 Dark Necessities  lessons Tabs too difficult? Try these video lessons and learn fast
 
                INTRO Riff
G|--------------------------------|--------------------------------|
D|--------------------------------|--------------------------------|
A|--------------------------------|--------------------------------|
E|4-4-4-4-4-4-4-4-4-4-4-4-4-4-4-4-|1-1-1-1-1-1-1-1-1-1-1-1-1-1-1-1-|

G|--------------------------------|--------------------------------|
D|--------------------------------|--------------------------------|
A|3-3-3-3-3-3-3-3-3-3-3-3-3-3-3-3-|1-1-1-1-1-1-1-1-1-1-1-1-1-1-1-1-|
E|--------------------------------|--------------------------------|

Repeat 4 times then...

  S  P  P  P P  S  S   P  P  P P   S  S  P  P  P P  S  S   P  P  P P
G|---5--3--5-5x--------5--3--5-5X-|------5--3--5-5x--------5--3--5-5X-|
D|--------------------------------|-----------------------------------|
A|3-----x--x-x---------x--x--x-x--|1--3-----x--x-x---------x--x--x-x--|
E|--------------1--4--------------|-----------------1--4--------------|


VERSE Riff (X2)
  S  S  P  P  P P  S  S   P  P  P P   S  S  P  P  P P  S  S   P  P  P P
G|------5--3--5-5x--------5--3--5-5X-|------5--3--5-5x--------5--3--5-5X-|
D|-----------------------------------|-----------------------------------|
A|1--3-----x--x-x---------x--x--x-x--|1--3-----x--x-x---------x--x--x-x--|
E|-----------------1--4--------------|-----------------1--4--------------|


  S  S  P  P  P P  S  S  P  P P P    S  P  P  P P  S  S   P  P P P
G|----------------------------------|---5--3--5-5x--------5--8-7-5X-|
D|------3--1--3-3x-------6--6-5-3h5-|-------------------------------|
A|----------------------------------|3-----x--x-x--1--3---x--x-x-x--|
E|4--1-------------1-/4-------------|-------------------------------|


CHORUS Riff (X2)
G|-----------------------|------------------4---5-|
D|------6-------6---6--5-|------3-------3---------|
A|-----------------------|----------------2---3---|
E|4-4-4---4-4-4---4--3---|1-1-1---1-1-1-----------|

G|------5-------5--------|------3-------3---3--4-|
D|-----------------------|-----------------------|
A|3-3-3---3-3-3---5/6/53-|1-1-1---1-1-1---1--2---|
E|-----------------------|-----------------------|


BRIDGE Riff (X2)
G|5-3-------------------|6-5-------------------|8-7-5-----------------|
D|----6-5-3-------------|----6-5-3-------------|------8-6-5-----------|
A|----------6-4-5-3-3-3-|----------6-4-5-3-3-3-|------------8-6-5-5-5-|
E|----------------------|----------------------|----------------------|


OUTRO Riff
G|-----------------|-----------------|-----------------|-----------------|
D|-----------------|-----------------|-----------------|-----------------|  
A|---------------1-|3---3-5-1---1-/3-|---------------1-|3---3-5-1---1-/3-| X2
E|4---4-8/1---1----|-----------------|4---4-8/1---1----|-----------------| 

G|-----------------------|------------------4---5-|
D|------6-------6---6--5-|------3-------3---------|
A|-----------------------|----------------2---3---| X2
E|4-4-4---4-4-4---4--3---|1-1-1---1-1-1-----------|

G|-----------------|-----------------|-----------------|-----------------|
D|-----------------|-----------------|-----------------|-----------------|  
A|---------------1-|3---3-5-1---1-/3-|---------------1-|3---3-5-1---1-/3-| X2
E|4---4-8/1---1----|-----------------|4---4-8/1---1----|-----------------| 
            
Submit corrections


        Dark Necessities  lessons Hard to play? Try these video lessons and learn fast Dark Necessities  lessons
        
↑ Back to top | Tablatures and chords for acoustic guitar and electric guitar, ukulele, drums are parodies/interpretations of the original songs. You may use it for private study, scholarship, research or language learning purposes only