» » »

Red Hot Chili Peppers - Castles Made Of Sand Tabs

Artists:  A B C D E F G H I J K L M N O P Q R S T U V W X Y Z # 

Castles Made Of Sand Tabs

(ver. 1) Click to play this song!
Red Hot Chili Peppers
 Rating:
4.4/5 (11 votes)

 Castles Made Of Sand lessons Tabs too difficult? Try these video lessons and learn fast
 
                [Solo]
e|---------------------------------------------------------------------------|
B|---------------------------------------------------------------------------|
G|----------------10/12-----12b15br12----12----------------------------------|
D|---10p8--10p8-----------------------------10b-10b-10p8-------8p7-----------|
A|---------------------------------------------------------10------10--------|
E|---------------------------------------------------------------------------|

e|---------------------------------------------------------------------------|
B|-----------------------------------------------------------10-----10h12----|
G|---10/12--10-10-12-------------------------------12--11h12----12-----------|
D|-----------------------10h11p10----8/10p8----------------------------------|
A|-------------------------------------------10------------------------------|
E|---------------------------------------------------------------------------|

e|---10--15------------------------------------------------------------------|
B|---------------------------------------------------------------------------|
G|---------------------------------------------------------------------------|
D|---------------------------------------------------------------------------|
A|---------------------------------------------------------------------------|
E|---------------------------------------------------------------------------|

            
Submit corrections


        Castles Made Of Sand lessons Hard to play? Try these video lessons and learn fast Castles Made Of Sand lessons
        
↑ Back to top | Tablatures and chords for acoustic guitar and electric guitar, ukulele, drums are parodies/interpretations of the original songs. You may use it for private study, scholarship, research or language learning purposes only