» » »

Red Hot Chili Peppers - Californication Tabs

Artists:  A B C D E F G H I J K L M N O P Q R S T U V W X Y Z # 

Californication Tabs

(ver. 1) Click to play this song!
Red Hot Chili Peppers
 Rating:
4.1/5 (31 vote)

 Californication lessons Tabs too difficult? Try these video lessons and learn fast
 
                [Solo]
e|--------------------9--------------12p9--9------------9---------9---------9-----12p9---9--9--9-|
B|---10----10----10-----10--------10---------10--------------10-------10----------------10-10-10-|
G|-----------------------------11---------------11--------------------------------------11-11-11-|
D|---------------------------0--------------------------------------------------0----------------|
A|-9-----9-----9----9---------------------------------9----9----9---9-----9----------------------|
E|-----------------------------------------------------------------------------------------------|

e|---7--7-------10---10-----5--5-----7--7---9--9--9--9--9--9--9--9--9--14--14--14--14--14--14--14|
B|--7---------10-----------5--------9------------------------------------------------------------|
G|-7---7----11-----11-----6---6----9---9---------------------------------------------------------|
D|-----------------------------------------------------------------------------------------------|
A|-----------------------------------------------------------------------------------------------|
E|-----------------------------------------------------------------------------------------------|

e|-9--9--9--9--9--9--9--9--9--14--14--14--14--14--14--14---14-12----14-12-----14-12---------14-12---|
B|--------------------------------------------------------------14--------14--------14--14--------14|
G|--------------------------------------------------------------------------------------------------|
D|--------------------------------------------------------------------------------------------------|
A|--------------------------------------------------------------------------------------------------|
E|--------------------------------------------------------------------------------------------------|

e|-14-12-----14-12-----14-12-----------14-12----14-12---------------------------------|
B|-------14--------14--------14--14-14-------14-------14---12/14--14--14--14--14/12-10|
G|------------------------------------------------------------------------------------|
D|------------------------------------------------------------------------------------|
A|------------------------------------------------------------------------------------|
E|------------------------------------------------------------------------------------|

e|-----12-------------------------------12--------------------------------12h14--14-14-14-14|
B|-12b----12b--12p10-12-12p10----10--12b---12p10-12p10-12p10-12p10-12/14--------------------|
G|----------------------------11------------------------------------------------------------|
D|------------------------------------------------------------------------------------------|
A|------------------------------------------------------------------------------------------|
E|------------------------------------------------------------------------------------------|

e|-12h14-14-14-14--12-14-14-14-14--12-14-14-14-14-14|
B|--------------------------------------------------|
G|--------------------------------------------------|
D|--------------------------------------------------|
A|--------------------------------------------------|
E|--------------------------------------------------|            
Submit corrections


        Californication lessons Hard to play? Try these video lessons and learn fast Californication lessons
        
↑ Back to top | Tablatures and chords for acoustic guitar and electric guitar, ukulele, drums are parodies/interpretations of the original songs. You may use it for private study, scholarship, research or language learning purposes only