» » »

Red Hot Chili Peppers - Bunker Hill Tabs

Artists:  A B C D E F G H I J K L M N O P Q R S T U V W X Y Z # 

Bunker Hill Tabs

(ver. 2) Click to play this song!
Red Hot Chili Peppers
 Rating:
4.3/5 (23 votes)

 Bunker Hill lessons Tabs too difficult? Try these video lessons and learn fast
 
                [Intro]

e|-------------------|-7-----------------|-------------------|-7-----------------|-------------------|
B|-------------------|-7-----------------|-------------------|-7-----------------|-------------------|
G|-------------------|-7-----------------|-------------------|-7-----------------|-------------------|
D|-------------------|-------------------|-------------------|-------------------|-------------------|
A|-------------------|-------------------|-------------------|-------------------|-------------------|
E|-------------------|-------------------|-------------------|-------------------|-------------------|

e|-7-10--------------|-------------------|-14----------------|-------------------|
B|-------------------|-------------------|-15----------------|-------------------|
G|-------------------|-------------------|-16----------------|-------------------|
D|-------------------|-------------------|-------------------|-------------------|
A|-------------------|-------------------|-------------------|-------------------|
E|-------------------|-------------------|-------------------|-------------------|

 [Verse 1]

e|-----------------------|-----------------------|-----------------------|-----------------------|
B|-3--3-3-3-3-3-3-3--3-3-|-3--3-3-3-3-3-3-3--3-3-|-3--3-3-3-3-3-3-3--3-3-|-3--3-3-3-3-3-3-3--3-3-|
G|-4--4-4-4-4-4-4-4--4-4-|-4--4-4-4-4-4-4-4--4-4-|-4--4-4-4-4-4-4-4--4-4-|-4--4-4-4-4-4-4-4--4-4-|
D|-4--4-4-4-4-4-4-4--4-4-|-4--4-4-4-4-4-4-4--4-4-|-4--4-4-4-4-4-4-4--4-4-|-4--4-4-4-4-4-4-4--4-4-|
A|-2--2-2-2-2-2-2-2--2-2-|-2--2-2-2-2-2-2-2--2-2-|-2--2-2-2-2-2-2-2--2-2-|-2--2-2-2-2-2-2-2--2-2-|
E|-----------------------|-----------------------|-----------------------|-----------------------|

e|-7--7-7-7-7-7-7-7--7-7-|-7--7-7-7-7-7-7-7--7-7-|-7--7-7-7-7-7-7-7--7-7-|-7--7-7-7-7-7-7-7--7-7-|
B|-7--7-7-7-7-7-7-7--7-7-|-7--7-7-7-7-7-7-7--7-7-|-7--7-7-7-7-7-7-7--7-7-|-7--7-7-7-7-7-7-7--7-7-|
G|-7--7-7-7-7-7-7-7--7-7-|-7--7-7-7-7-7-7-7--7-7-|-7--7-7-7-7-7-7-7--7-7-|-7--7-7-7-7-7-7-7--7-7-|
D|-----------------------|-----------------------|-----------------------|-----------------------|
A|-----------------------|-----------------------|-----------------------|-----------------------|
E|-----------------------|-----------------------|-----------------------|-----------------------|

e|-10--10-10-10-10-10-10-10--10-10-|-10--10-10-10-10-10-10-10--10-10-|
B|-12--12-12-12-12-12-12-12--12-12-|-12--12-12-12-12-12-12-12--12-12-|
G|-11--11-11-11-11-11-11-11--11-11-|-12--12-12-12-12-12-12-12--12-12-|
D|---------------------------------|---------------------------------|
A|---------------------------------|---------------------------------|
E|---------------------------------|---------------------------------|

e|-14--14-14-14-14-14-14-14--14-14-|-19--19-19-19-19-19-19-19--19-19-|----------------|
B|-15--15-15-15-15-15-15-15--15-15-|-19--19-19-19-19-19-19-19--19-19-|-13--13--13--13-|
G|-16--16-16-16-16-16-16-16--16-16-|-19--19-19-19-19-19-19-19--19-19-|----------------|
D|---------------------------------|---------------------------------|----------------|
A|---------------------------------|---------------------------------|----------------|
E|---------------------------------|---------------------------------|----------------|

 [Chorus 1]

e|------------|-----------------|------------|-------------------------------|
B|-7-7-7-7--7/|-12-12-12-12--12\|-8-8-8-8--8-|-8-8-8/15-15-15-15-15-15-15-15-|
G|------------|-----------------|------------|-------------------------------|
D|------------|-----------------|------------|-------------------------------|
A|------------|-----------------|------------|-------------------------------|
E|------------|-----------------|------------|-------------------------------|

e|-------------------------------x-x-|-14b15r14----------------------x-x-|-14b15r14----------------------x-x-|
B|-12-12-12-12-12-12-12-12-12-12-x-x-|-15b16r15-12-12-12-12-12-12-12-x-x-|-15b16r15-12-12-12-12-12-12-12-x-x-|
G|-------------------------------x-x-|-------------------------------x-x-|-------------------------------x-x-|
D|-----------------------------------|-----------------------------------|-----------------------------------|
A|-----------------------------------|-----------------------------------|-----------------------------------|
E|-----------------------------------|-----------------------------------|-----------------------------------|

e|------------------------------------10-|
B|-10--10-10-10-10--12-12-12-12-12-12----| 
G|---------------------------------------|
D|---------------------------------------|
A|---------------------------------------| 
E|---------------------------------------| 

 [Instrumental]

e|-------------------------|-------------------------|-------------------------|-------------------------|
B|-------------------------|-------------------------|-------------------------|-------------------------|
G|-------------------------|-------------------------|-------------------------|-------------------------|
D|-------------------------|-------------------------|-------------------------|-------------------------|
A|-------------------------|-------------------------|-------------------------|-------------------------|
E|-------------------------|-------------------------|-------------------------|-------------------------|

 [Verse 2]

e|-----------------------|-----------------------|-7--7-7-7-7-7-7-7--7-7-|-7--7-7-7-7-7-7-7--7-7-|
B|-3--3-3-3-3-3-3-3--3-3-|-3--3-3-3-3-3-3-3--3-3-|-7--7-7-7-7-7-7-7--7-7-|-7--7-7-7-7-7-7-7--7-7-|
G|-4--4-4-4-4-4-4-4--4-4-|-4--4-4-4-4-4-4-4--4-4-|-7--7-7-7-7-7-7-7--7-7-|-7--7-7-7-7-7-7-7--7-7-|
D|-4--4-4-4-4-4-4-4--4-4-|-4--4-4-4-4-4-4-4--4-4-|-----------------------|-----------------------|
A|-2--2-2-2-2-2-2-2--2-2-|-2--2-2-2-2-2-2-2--2-2-|-----------------------|-----------------------|
E|-----------------------|-----------------------|-----------------------|-----------------------|

e|-10--10-10-10-10-10-10-10--10-10-|-10--10-10-10-10-10-10-10--10-10-|
B|-12--12-12-12-12-12-12-12--12-12-|-12--12-12-12-12-12-12-12--12-12-|
G|-11--11-11-11-11-11-11-11--11-11-|-12--12-12-12-12-12-12-12--12-12-|
D|---------------------------------|---------------------------------|
A|---------------------------------|---------------------------------|
E|---------------------------------|---------------------------------|

e|-14--14-14-14-14-14-14-14--14-14-|-14--14-14-14-14-14-14-14--14-14-|-15--15--15--15-|
B|-15--15-15-15-15-15-15-15--15-15-|-15--15-15-15-15-15-15-15--15-15-|----------------|
G|-16--16-16-16-16-16-16-16--16-16-|-16--16-16-16-16-16-16-16--16-16-|----------------|
D|---------------------------------|---------------------------------|----------------|
A|---------------------------------|---------------------------------|----------------|
E|---------------------------------|---------------------------------|----------------|

e|-14-------14-------|-14-------17-------|-14-------14-------|-14-------17-------|
B|----15-------15----|----15-------15----|----15-------15----|----15-------15----|
G|-------16-------16-|-------16-------16-|-------16-------16-|-------16-------16-| (Play over the verse.)
D|-------------------|-------------------|-------------------|-------------------| 
A|-------------------|-------------------|-------------------|-------------------|
E|-------------------|-------------------|-------------------|-------------------| 

e|-14-------14-------|-14-------17-------|-14-------14-------|-14-------17-------|
B|----15-------15----|----15-------15----|----15-------15----|----15-------15----|
G|-------16-------16-|-------16-------16-|-------16-------16-|-------16-------16-| (Play over the verse.)
D|-------------------|-------------------|-------------------|-------------------| 
A|-------------------|-------------------|-------------------|-------------------|
E|-------------------|-------------------|-------------------|-------------------| 

 [Chorus 2]

e|------------|-----------------|------------|-------------------------------|
B|-7-7-7-7--7/|-12-12-12-12--12\|-8-8-8-8--8-|-8-8-8/15-15-15-15-15-15-15-15-|
G|------------|-----------------|------------|-------------------------------|
D|------------|-----------------|------------|-------------------------------|
A|------------|-----------------|------------|-------------------------------|
E|------------|-----------------|------------|-------------------------------|

e|-------------------------------x-x-|-14b15r14----------------------x-x-|-14b15r14----------------------x-x-|
B|-12-12-12-12-12-12-12-12-12-12-x-x-|-15b16r15-12-12-12-12-12-12-12-x-x-|-15b16r15-12-12-12-12-12-12-12-x-x-|
G|-------------------------------x-x-|-------------------------------x-x-|-------------------------------x-x-|
D|-----------------------------------|-----------------------------------|-----------------------------------|
A|-----------------------------------|-----------------------------------|-----------------------------------|
E|-----------------------------------|-----------------------------------|-----------------------------------|

e|--------------|------------|-----------------|------------|-------------------------------|
B|-10------8----|-7-7-7-7--7/|-12-12-12-12--12\|-8-8-8-8--8-|-8-8-8/15-15-15-15-15-15-15-15-|
G|--------------|------------|-----------------|------------|-------------------------------|
D|--------------|------------|-----------------|------------|-------------------------------|
A|--------------|------------|-----------------|------------|-------------------------------|
E|--------------|------------|-----------------|------------|-------------------------------| 
 
e|-------------------------------x-x-|-14b15r14----------------------x-x-|-14b15r14----------------------x-x-|
B|-12-12-12-12-12-12-12-12-12-12-x-x-|-15b16r15-12-12-12-12-12-12-12-x-x-|-15b16r15-12-12-12-12-12-12-12-x-x-|
G|-------------------------------x-x-|-------------------------------x-x-|-------------------------------x-x-|
D|-----------------------------------|-----------------------------------|-----------------------------------|
A|-----------------------------------|-----------------------------------|-----------------------------------|
E|-----------------------------------|-----------------------------------|-----------------------------------|

e|-14-14-14-14-| 
B|-15-15-15-15-|
G|-16-16-16-16-|
D|-------------|
A|-------------|
E|-------------|

 [Interlude]

e|---10--10--10--10---|---12--12--12--12---|---10--10--10--10---|-----7--7--7--7-----|
B|---12--12--12--12---|---12--12--12--12---|---12--12--12--12---|-----8--8--8--8-----|
G|---11--11--11--11---|---12--12--12--12---|---11--11--11--11---|-----9--9--9--9-----|
D|--------------------|--------------------|--------------------|--------------------|
A|--------------------|--------------------|--------------------|--------------------|
E|--------------------|--------------------|--------------------|--------------------|

e|-10-10-10-10-10-10-|-12-12-12-12-12-12-|-10-10-10-10-10-10-|-14-14-14-15-15-15-|
B|-12-12-12-12-12-12-|-12-12-12-12-12-12-|-12-12-12-12-12-12-|-15-15-15-15-15-15-|
G|-11-11-11-11-12-12-|-12-12-12-12-12-12-|-11-11-11-11-11-11-|-16-16-16-17-17-17-| (Use delay.)
D|-------------------|-------------------|-------------------|-------------------| 
A|-------------------|-------------------|-------------------|-------------------|
E|-------------------|-------------------|-------------------|-------------------|

 [Chorus 3]

e|------------|-----------------|-----------------|-----------14-14-14-14-14-14-14-14-|
B|-8-8-8-8--8/|-15-15-15-15--15/|-12-12-12-12--12-|-12-12-12--15-15-15-15-15-15-15-15-|
G|-9-9-9-9--9/|-16-16-16-16--16/|-12-12-12-12--12-|-12-12-12--16-16-16-16-16-16-16-16-|
D|------------|-----------------|-----------------|-----------------------------------|
A|------------|-----------------|-----------------|-----------------------------------|
E|------------|-----------------|-----------------|-----------------------------------|

e|-------------------------------x-x-|-14b15r14----------------------x-x-|-14b15r14----------------------x-x-|
B|-12-12-12-12-12-12-12-12-12-12-x-x-|-15b16r15-12-12-12-12-12-12-12-x-x-|-15b16r15-12-12-12-12-12-12-12-x-x-|
G|-------------------------------x-x-|-------------------------------x-x-|-------------------------------x-x-|
D|-----------------------------------|-----------------------------------|-----------------------------------|
A|-----------------------------------|-----------------------------------|-----------------------------------|
E|-----------------------------------|-----------------------------------|-----------------------------------|

e|----------------------|------------|-----------------|------------|-------------------------------|
B|-10--12--10--8--10--8-|-7-7-7-7--7/|-12-12-12-12--12\|-8-8-8-8--8-|-8-8-8/15-15-15-15-15-15-15-15-|
G|----------------------|------------|-----------------|------------|-------------------------------|
D|----------------------|------------|-----------------|------------|-------------------------------|
A|----------------------|------------|-----------------|------------|-------------------------------|
E|----------------------|------------|-----------------|------------|-------------------------------| 
 
e|-------------------------------x-x-|-14b15r14----------------------x-x-|-14b15r14----------------------x-x-|
B|-12-12-12-12-12-12-12-12-12-12-x-x-|-15b16r15-12-12-12-12-12-12-12-x-x-|-15b16r15-12-12-12-12-12-12-12-x-x-|
G|-------------------------------x-x-|-------------------------------x-x-|-------------------------------x-x-|
D|-----------------------------------|-----------------------------------|-----------------------------------|
A|-----------------------------------|-----------------------------------|-----------------------------------|
E|-----------------------------------|-----------------------------------|-----------------------------------|

e|----------------------------------------14b15r14-|
B|-10-10-10-10-10-10-10-10-12-12-12-12-12-15b16r15-|
G|-11-11-11-11-11-11-11-11-12-12-12-12-12----------|
D|-------------------------------------------------|
A|-------------------------------------------------|
E|-------------------------------------------------|

 [Solo]

e|---------------|---------------|---------------|---------------|---------------|
B|---------------|----------3----|---------------|-3--3--3-------|-3-------------|
G|-2h4-----------|-----2--4---4--|-4-------2--4--|-----------4-4-|----4----------|
D|---------------|---------------|---------------|---------------|---------------|
A|---------------|---------------|---------------|---------------|---------------|
E|---------------|---------------|---------------|---------------|---------------|

e|---------------|---------------|---------------|---------------|
B|-5b7r5-3-------|---------------|---------------|---------------|
G|---------4-----|---------------|---------------|---------------|
D|---------------|-7--9\5--------|-7--9\4--------|-7--9\2--------|
A|---------------|---------------|---------------|---------------|
E|---------------|---------------|---------------|---------------|

 [Outro] (Both sections are meant to be played together.)

e|---------------|---------------|---------------|---------------|---------------|---------------|
B|---------------|---------------|---------------|---------------|---------------|---------------|
G|---------------|---------------|---------------|---------------|---------------|---------------|
D|---------------|---------------|---------------|---------------|---------------|---------------|
A|---------------|-10------------|-9\5-----------|-3-2-3-2-------|---------------|---------------|
E|---------------|---------------|---------------|---------------|--3------------|--3------------|

e|---------------|---------------|---------------|---------------|---------------|
B|---------------|---------------|---------------|---------------|---------------|
G|---------------|----7-3--------|---------------|---------------|---------------| 
D|---------------|-5-------------|---2b4---------|---------------|---------------|
A|---------------|---------------|---------------|---3-----------|---------------|
E|---------------|---------------|---------------|---------------|---------------|            
Submit corrections


        Bunker Hill lessons Hard to play? Try these video lessons and learn fast Bunker Hill lessons
        
↑ Back to top | Tablatures and chords for acoustic guitar and electric guitar, ukulele, drums are parodies/interpretations of the original songs. You may use it for private study, scholarship, research or language learning purposes only