» » »

Red Hot Chili Peppers - Annie Wants A Baby Tabs

Artists:  A B C D E F G H I J K L M N O P Q R S T U V W X Y Z # 

Annie Wants A Baby Tabs

(ver. 1) Click to play this song!
Red Hot Chili Peppers
 Rating:
4.4/5 (14 votes)

 Annie Wants A Baby lessons Tabs too difficult? Try these video lessons and learn fast
 
                
(Bass Intro)


[Verse]

e|------------------------------|------------------------------|
B|------------------------------|------------------------------|
G|--10~-----12b14---------------|--10~----12b14----------------|
D|-----------------12~----------|-----------------12~----------|
A|---------------------10h12-12-|------------------------------|
E|------------------------------|------------------------------|

e|---------------------------|---------------------------------|
B|---------------------------|---------------------------------|
G|---------------------------|---------------------------------|
D|--------------10-----------|---------------------------------| 
A|--10h12-10-12----12-10-8~--|--10h12-10-12----12-10-8-10-8~---|     
E|---------------------------|---------------------------------|

e|------------------------------|------------------------------|
B|------------------------------|------------------------------|
G|--10~-----12b14---------------|--10~----12b14----------------|
D|-----------------12~----------|-----------------12~----------|
A|---------------------10h12-12-|------------------------------|
E|------------------------------|------------------------------|

e|--------------------------------|--------------------------------|
B|--------------------------------|--------------------------------|
G|--------------------------------|--------------------------------|
D|--------------10----------------|--------------------------------| 
A|--10h12-10-12----12-10-8/10/8~--|--10h12-10-12----12-10-8b10r8~--|     
E|--------------------------------|--------------------------------|


[Pre-Chorus]

e|--------10-------10-----10--------------13-------13----13-----|
B|-----11-------11--------------------10-------10---------------|
G|--12-------12--------12----------12-------12--------12--------|
D|--------------------------------------------------------------|
A|--------------------------------------------------------------|
E|--------------------------------------------------------------|

e|--------10-------10-----10--------------10-------10----10-----|
B|-----11-------11--------------------11-------11---------------|
G|--12-------12--------12----------12-------12--------12--------|
D|--------------------------------------------------------------|
A|--------------------------------------------------------------|
E|--------------------------------------------------------------|

e|--------10-------10-----10--------------13-------13----13------------------|
B|-----11-------11--------------------10-------10----------------------------|
G|--12-------12--------12----------12-------12--------12---------------------|
D|---------------------------------------------------------------------------|
A|---------------------------------------------------------------------------|
E|---------------------------------------------------------------------------|

e|--------------------------------------|
B|--8-8-8-8-8-8-8-8-7-7-7-7-7-7-7-7-----|
G|--7-7-7-7-7-7-7-7-7-7-7-7-7-7-7-7-----|
D|--------------------------------------|
A|--------------------------------------|
E|--------------------------------------|

?
[Chorus]

     Dm              Gm             D#         F#        F
e|------5-------5---------5-------|----------------------------------|
B|----6---6---6---------8---8-----|-------8-------------7-------6----|
G|--7-------7---------7-------7---|-----8---8-----8------------------|
D|------------------5-----------5-|---8-------8-------8---8---7------|
A|--------------------------------|-6-----------8---9-------8--------|
E|--------------------------------|----------------------------------|

     Dm               Gm             D#         F#        F
e|-------------------------5-------|---------------------------------|
B|------6-8b10r8-6-8-----8---8-----|-------8-------------7-------6---|
G|----7--------------5h7-------7---|-----8---8-----8-----------------|
D|--7----------------------------5-|---8-------8-------8---8---7-----|
A|---------------------------------|-6-----------8---9-------8-------|
E|---------------------------------|---------------------------------|

(Chord strumming not shown, but it's not too difficult to figure out) 

     Dm      Gm      D#     F#augM7  FaugM7
e|----5-------5-------6-------------------------|
B|----6-------8-------8-------6-------5---------|
G|----7-------7-------8-------7-------6---------|
D|----7-------5-------8-------8-------7---------|
A|----5---------------6-------9-------8---------|
E|----------------------------------------------|

     Dm                       Gm      D#      F#augM7  FaugM7  A#
e|----5------------------------5-------6---------------------------|
B|----6------6-8b10r8-6-8------8-------8-------6-------5-----------|
G|----7----7---7----------5h7--7-------8-------7-------6-------3---|
D|----7--7---------------------5-------8-------8-------7-------3---|
A|----5--------------------------------6-------9-------8-------1---|
E|-----------------------------------------------------------------|


[Interlude/Solo]

e|---------------------8-----------------------------------------------|
B|--10---10-6-6---10-----10-6-6\5-5\3----------------------------------|
G|------------------------------------7b9r7b9r7------------5-----------|
D|-----------------------------------------------5/7-7-7-7---7---------|
A|---------------------------------------------------------------------|
E|---------------------------------------------------------------------|


[Verse]

e|------------------------------|----------------------|
B|------------------------------|----------------------|
G|--10~-----12b14---------------|--10~----12b14--------|
D|-----------------12~----------|-----------------12~--|
A|---------------------10h12-12-|----------------------|
E|------------------------------|----------------------|

e|-------------------------------|--------------------------------|
B|-------------------------------|--------------------------------|
G|-------------------------------|--------------------------------|
D|--------------10---------------|--------------10----------------| 
A|--10h12-10-12----12-10-8/10-8--|--10h12-10-12----12-10-8b10r8---|     
E|-------------------------------|--------------------------------|

e|-------------------13-13-13-13-13-13-13-13-----|
B|-------------------13-13-13-13-13-13-13-13-----|
G|---9~---12b--10----x--x--x--x--x--x--x--x------|
D|-----------------------------------------------|
A|-----------------------------------------------|
E|-----------------------------------------------|

e|------------------------------|----------------------|
B|------------------------------|----------------------|
G|--10~-----12b14---------------|--10~----12b14--------|
D|-----------------12~----------|-----------------12~--|
A|---------------------10h12-12-|----------------------|
E|------------------------------|----------------------|

e|----------------------------------|--------------------------------|
B|----------------------------------|--------------------------------|
G|----------------------------------|--------------------------------|
D|--------------10------------------|--------------------------------| 
A|--10h12-10-12----12-10-8~---8-8-8-|-10h12-10-12----12-10-8b10r8~---|     
E|----------------------------------|--------------------------------|


[Pre-Chorus]

e|--------10-------10-----10--------------13-------13----13------|
B|-----11-------11--------------------10-------10----------------|
G|--12-------12--------12----------12-------12--------12---------|
D|---------------------------------------------------------------|
A|---------------------------------------------------------------|
E|---------------------------------------------------------------|

e|--------10-------10-----10--------------10-------10----10------|
B|-----11-------11--------------------11-------11----------------|
G|--12-------12--------12----------12-------12--------12---------|
D|---------------------------------------------------------------|
A|---------------------------------------------------------------|
E|---------------------------------------------------------------|

e|--------10-------10-----10--------------13-------13----13------|
B|-----11-------11--------------------10-------10----------------|
G|--12-------12--------12----------12-------12--------12---------|
D|---------------------------------------------------------------|
A|---------------------------------------------------------------|
E|---------------------------------------------------------------|

e|--------------------------------------|
B|--8-8-8-8-8-8-8-8-7-7-7-7-7-7-7-7-----|
G|--7-7-7-7-7-7-7-7-7-7-7-7-7-7-7-7-----|
D|--------------------------------------|
A|--------------------------------------|
E|--------------------------------------|


[Chorus]

     Dm      Gm      D#     F#augM7  FaugM7
e|----5-------5-------6-------------------------|
B|----6-------8-------8-------6-------5---------|
G|----7-------7-------8-------7-------6---------|
D|----7-------5-------8-------8-------7---------|
A|----5---------------6-------9-------8---------|
E|----------------------------------------------|

     Dm                       Gm      D#      F#augM7  FaugM7 
e|----5------------------------5-------6----------------------|
B|----6------6-8b10r8-6-8------8-------8-------6-------5------|
G|----7----7---7----------5h7--7-------8-------7-------6------|
D|----7--7---------------------5-------8-------8-------7------|
A|----5--------------------------------6-------9-------8------|
E|------------------------------------------------------------|

     Dm      Gm      D#     F#augM7  FaugM7
e|----5-------5-------6-------------------------|
B|----6-------8-------8-------6-------5---------|
G|----7-------7-------8-------7-------6---------|
D|----7-------5-------8-------8-------7---------|
A|----5---------------6-------9-------8---------|
E|----------------------------------------------|

     Dm                       Gm      D#      F#augM7  FaugM7  A#
e|----5------------------------5-------6---------------------------|
B|----6------6-8b10r8-6-8------8-------8-------6-------5-----------|
G|----7----7---7----------5h7--7-------8-------7-------6-------3---|
D|----7--7---------------------5-------8-------8-------7-------3---|
A|----5--------------------------------6-------9-------8-------1---|
E|-----------------------------------------------------------------|


[Solo]

e|-------------------------------------------------|--------------------------|
B|-------------------------------------------------|--------------------------|
G|-------------------------------------------------|--------------------------|
D|-------------------------------------------------|---------10---------------|
A|---5--5-5-5-------------------5--5-5-5-7--8/10\8-|-8-7-8/12----12-10-8/10\8-|
E|------------5br-5/8-10\8-8p7---------------------|--------------------------|

e|-----------------------------------|
B|-----------------------------------|
G|-----------------------5-7---7-----|
D|-------------3--3-3-5/7-7--5-------|
A|---5-3-5-3-5---5-5-----------------|
E|-----------------------------------|


[Outro]

e|--------10-------10-----10--------------13-------13----13------------------|
B|-----11-------11--------------------10-------10----------------------------|
G|--12-------12--------12----------12-------12--------12---------------------|
D|---------------------------------------------------------------------------|
A|---------------------------------------------------------------------------|
E|---------------------------------------------------------------------------|

e|--------10---|
B|-----11------|
G|--12---------|
D|-------------|
A|-------------|
E|-------------|            
Submit corrections


        Annie Wants A Baby lessons Hard to play? Try these video lessons and learn fast Annie Wants A Baby lessons
        
↑ Back to top | Tablatures and chords for acoustic guitar and electric guitar, ukulele, drums are parodies/interpretations of the original songs. You may use it for private study, scholarship, research or language learning purposes only