Home » R » Reckless Kelly »

Reckless Kelly - Ragged As The Road Tabs

Artists:  A B C D E F G H I J K L M N O P Q R S T U V W X Y Z # 

Ragged As The Road Tabs

(ver. 2) Click to play this song!
Reckless Kelly
Ragged as the Road
Reckless Kelly
Bulletproof album
Please correct if needed.  Please Leave Kudos
When we play this song the rhythm play plays capoed and I play uncapped


Intro: E.....
Verse:  E      Ab    A    E
        A      E     C#   A
        E      D     A    B
Chorus: E      A     B    E
        A      B     E    C#m
        A      B     E      
Verse
Chorus

Solo: C#m A E  B
-----------------------------9-—12br—9-----9--12-9—9-----9------------------------------
--------9h12p9----9-12-12-12------------12------------12b--12-9-------------------------
--9-11---------11------------------------------------------------11-9-11-9-----9--------
----------------------------------------------------------------------------11----11--9-
----------------------------------------------------------------------------------------
----------------------------------------------------------------------------------------
                                                 End Lick
---------------------9---------------------0---|----------------------------------------
--------9-12-9-12-12----12-12-9-7-9-7-5-5------|----------------------------------------
-----9-----------------------------------------|----------------------------------------
--11-------------------------------------------|------4--2-0--2-------------------------
-----------------------------------------------|----------------------------------------
-----------------------------------------------|----------------------------------------

Verse
Chorus 

C#m A B

Chorus

End: C#m A B E
            
Submit corrections

↑ Back to top | Tablatures and chords for acoustic guitar and electric guitar, ukulele, drums are parodies/interpretations of the original songs. You may use it for private study, scholarship, research or language learning purposes only