Home » R » Reckless Kelly »

Reckless Kelly - Nobody's Girl Tabs

Artists:  A B C D E F G H I J K L M N O P Q R S T U V W X Y Z # 

Nobody's Girl Tabs

(ver. 2) Click to play this song!
Reckless Kelly
                  Reckless Kelly
                  "Nobody's Girl"


         
Opening:
1st guitar :   A  E  F#m  D  3x

2nd guitar:  strums A and then the Lead comes in  (2nd guitar plays same chords as 1st 

--------------------------------------------
--------------------------------------------
--------------------------------------------
-----------------------------0-0------------
--0-0-2-2-h-4-4-2-2--0-0-2-4-------4-2-0--0-
------------------------------ ----------4--     2x

Then he plays with the other 2 guitars, palm muting the chords...  A  E  F#m  D

/ = Slide

Solo
---------------------------------------
---------------------------------------
--9-9-/-8-8-/-6-6-/-4-4-/-2-2----------
--7-7-/-6-6-/-4-4-/-2-2-/-0-0-6-4-2---- 
------------------------------4-2-0----
---------------------------------------
continued
-------------------------------------------
-------------------------------------------
9-9-/-8-8-/-6-6-/-4-4-/-6-6-6-/-4-4---4-4-2
7-7-/-6-6-/-4-4-/-2-2-/-4-4-4-/-2-2---2-2-0
-------------------------------------------
-------------------------------------------

Continued
-----------------------------------------------
-----------------------------------------------
-----------------------------------------------
-6-6-/-7-7--6-4-2---------0-0------------------
-4-4-/-5-5--4-2-0-0-0-2-4-----4-2-0---0--------
------------------------------------4----------

then back to the palm muting….


Then they end on this again….
--------------------------------------------------
--------------------------------------------------
--------------------------------------------------
--------------------------------0-0---------------
--0-0-2-2-h-4-4-2-2------0-0-2-4-------4-2-0---0--
---------------------------------------------4----   2x

A              =     x02220
E              =     022100
F#m            =     244222
D              =     xx0232

If you have any corrections, feel free to submit them.

                                    Thanks,  
                                        Parker
            
Submit corrections

↑ Back to top | Tablatures and chords for acoustic guitar and electric guitar, ukulele, drums are parodies/interpretations of the original songs. You may use it for private study, scholarship, research or language learning purposes only