Home » R » Rebelution »

Rebelution - Safe And Sound Bass

Artists:  A B C D E F G H I J K L M N O P Q R S T U V W X Y Z # 

Safe And Sound Bass

(ver. 3) Click to play this song!
Rebelution
Not sure if this is 100% correct I hope you appreciate it :) -Keem

Intro:    |1st part|      "when we come down..."  (its also the chorus)
G|----------------------|---------------|-------------------------------------|
D|----------------------|---------------|-------------------------------------|
A|--4--2--1----4--2--1--|-------6----4--|----11--44---2--1--------------------|
E|-4--2-------4--2------|-444-5---6-----|-22--------2-------------------------|


Verse

G|---------------------------------------------------------------------------|
D|---------------------------------------------------------------------------|
A|------6------4-------------------------------------------------------------|
E|-4-4----4-6----676--4------------------------------------------------------|
            
Submit corrections

↑ Back to top | Tablatures and chords for acoustic guitar and electric guitar, ukulele, drums are parodies/interpretations of the original songs. You may use it for private study, scholarship, research or language learning purposes only