Home » R » Rebelution »

Rebelution - Safe And Sound Bass

Artists:  A B C D E F G H I J K L M N O P Q R S T U V W X Y Z # 

Safe And Sound Bass

(ver. 2) Click to play this song!
Rebelution
-------------------------------------------------------------------------------
			     SAFE AND SOUND by Rebelution
-------------------------------------------------------------------------------


Tuning: Standard

Chorus

G|-222-----------------------------------------------------------------------|
D|------2--0---5555-0--------------------------------------------------------|
A|-----3--3--------2--0--3-2-------------------------------------------------|
E|---------------------------------------------------------------------------|


Verse

G|---------------------------------------------------------------------------|
D|-----2-0-0--0--------------------------------------------------------------|
A|-0--0---3----2-3-2---------------------------------------------------------|
E|---------------------------------------------------------------------------|
            
Submit corrections

↑ Back to top | Tablatures and chords for acoustic guitar and electric guitar, ukulele, drums are parodies/interpretations of the original songs. You may use it for private study, scholarship, research or language learning purposes only