Home » R » Rebelution »

Rebelution - Lady In White Tabs

Artists:  A B C D E F G H I J K L M N O P Q R S T U V W X Y Z # 

Lady In White Tabs

(ver. 3) Click to play this song!
Rebelution
This is slightly different than their original Lady In White song. This is off the 
acoustic version of the album Peace of Mind.

Standard Tuning

x = palm mute
h = hammer on

Intro/Verse
e|--------------------------------------------------------------------------|
B|--------------------------------------------------------------------------|
G|-----4---5---7---5---7---5---4-----------4---5---7---2---4---5---4--------|
D|--------------------------------------------------------------------------|
A|--------------------------------------------------------------------------|
E|-0-----0---0---0---0---0---0---0-----0-----0---0---0---0---0---0----------|


Bridge
e|------------------------------------------------------------|
B|------------------------------------------------------------|
G|------------------------------------------------------------|
D|----------------------------------4-----4-----4h5-----------|
A|------------------------------------------------------------|
E|----0--x--x--3--x--x--7--x--x--x-----x-----x----------------|x4


Chords (prior to outro)
e|-------------------|
B|-------------------|
G|-------------------|
D|---5---4-----------|
A|---3---2-----------|
E|---3---2-----------|


Outro (also played with the chords listed above)
e|-------------------------------------------------------------------|
B|-------------------------------------------------------------------|
G|-------------------------------------------------------------------|
D|---7-9----5-7----4-5----2-4----0-2---------------------------------|
A|-------------------------------------------------------------------|
E|-0------0------0------0------0-------------------------------------|


End with open E string
e|----------------------------------------------------------------|
B|----------------------------------------------------------------|
G|----------------------------------------------------------------|
D|----------------------------------------------------------------|
A|----------------------------------------------------------------|
E|-0--0--x--x--x--x--0--0-----------------------------------------|


Hit me up with comments/questions/corrections. The only error that might exist is in the 
chords. They done sound like full chords. Just the bottom three strings.

This was my first tab that I submitted so thank you for learning!

Daniel Wright
            
Submit corrections

↑ Back to top | Tablatures and chords for acoustic guitar and electric guitar, ukulele, drums are parodies/interpretations of the original songs. You may use it for private study, scholarship, research or language learning purposes only