Home » R » Rebelution »

Rebelution - Lady In White Bass

Artists:  A B C D E F G H I J K L M N O P Q R S T U V W X Y Z # 

Lady In White Bass

(ver. 1) Click to play this song!
Rebelution
Lady In White
Rebelution

G----------------------------------|
D----------------------------------|
A-----------------3-3-5-5-6-6-5-5--|
E---3---------3--------------------|

G------------------------|
D---------------3-3-3-5--|
A-----------5------------|
E---3---6----------------|

G---------------------------------------|
D-------3-5-----------------------------|
A-----------5-6-5----------5-6-5--------|
E---3-------------6-5-3----------6-5-3--|
            
Submit corrections

↑ Back to top | Tablatures and chords for acoustic guitar and electric guitar, ukulele, drums are parodies/interpretations of the original songs. You may use it for private study, scholarship, research or language learning purposes only