» » »

Razorlight - Up All Night Tabs

Artists:  A B C D E F G H I J K L M N O P Q R S T U V W X Y Z # 

Up All Night Tabs

(ver. 1) Click to play this song!
Razorlight
 Rating:
4/5 (4 votes)

 Up All Night lessons Tabs too difficult? Try these video lessons and learn fast
 
                INTRO

E |--5~--|------|-------|------|------|-------|--8~--|--8~--|--10~--| 
B |--6~--|--8~--|--10~--|--6~--|--8~--|--10~--|--8~--|--8~--|--10~--|
G |--7~--|--9~--|--10~--|--7~--|--9~--|--10~--|--9~--|--9~--|--10~--|
D |------|--7~--|--8~---|--5~--|--7~--|--8~---|-10~--|-10~--|--10~--|
A |------|------|-------|------|------|-------|------|------|-------| 
E |------|------|-------|------|------|-------|------|------|-------|

I LOST A SACRED FEELING....
GUITAR 1

E |--8~--|--8~--|--10~--|--10~--|  CONTINUE PLAYIN THIS THROUGH
B |--8~--|--8~--|--10~--|--10---|  THE VERSES (GUITAR 1)
G |--9~--|--9~--|--10~--|--10~--|
D |-10~--|-10~--|--10~--|--10~--|
A |------|------|-------|-------|
E |------|------|-------|-------|

I'VE BEEN UP ALL NIGHT....
GUITAR 1

E |----------------------------------------| 
B |----------------------------------------|   PLAY 3 TIMES I THINK
G |--14~-------12/---------5~--------------|   
D |----------------------------------------|   IM DOIN THIS FROM THE TOP
A |----------------------------------------|    OF MY HEAD BY THE WAY LOL
E |----------------------------------------|

GUITAR 1

E |-----------------------------------------------------------------|
B |-----------------------------------------------------------------|
G |--14-14-14-14-14-14-14-14-12-12-12-12-12-12/-5-5-5-5-5-5-5-5-5-5-|
D |-----------------------------------------------------------------|
A |-----------------------------------------------------------------|
E |-----------------------------------------------------------------|

GUITAR 2

E |----------------------------------------------------------------| 
B |--------------------------------------------2-2-2-2-2-2-2-2-2-2-|
G |--------------------------------------------2-2-2-2-2-2-2-2-2-2-|
D |--5-5-5-5-5-5-5-5-5-5-5-5-7-7-7-7-7-7-7-7-7-1-1-1-1-1-1-1-1-1-1-|
A |--5-5-5-5-5-5-5-5-5-5-5-5-5-7-7-7-7-7-7-7-7---------------------| 
E |--3-3-3-3-3-3-3-3-3-3-3-3-5-5-5-5-5-5-5-5-5---------------------|

THROUGH VERSES GUITAR 1 KEEP PLAYIN THE SAME RIFFS

GUITAR 2 PLAY THIS THROUGH VERSES

E |------|----------|
B |--5~--|--5---6~--|    PLAY THIS UNTIL CHORUS
G |--5~--|--5---7~--|
D |--5~--|--5---7~--|
A |--3~--|--3---5~--| 
E |------|----------|


GUITAR 2, PLAY THE SAME CHORDS FOR CHROUS AS BEFORE

GUITAR 1

E |--------------------------------------------------------------------|
B |--------------------------------------------------------6----6------|
G |-14-14-14-14-14-14-14-14-12-12-12-12-12-12/5-5-5-5-5-5-7--5-7--7-5--|
D |--------------------------------------------------------------------|
A |--------------------------------------------------------------------|
E |--------------------------------------------------------------------|

E |-------------------------------------------------------------12-13-12--| 
B |----------------------------------------13-13-13-13-13-13-15-----------|
G |-14-14-14-14-14-14-14-14-12-12-12-12-12--------------------------------|
D |-----------------------------------------------------------------------|
A |-----------------------------------------------------------------------| 
E |-----------------------------------------------------------------------|

E |-------15-15-15-15-15-15-17-17-17-17-17-18-17-17-17-17-15-13-13-15-15-| 
B |-15-13----------------------------------------------------------------|
G |----------------------------------------------------------------------|
D |----------------------------------------------------------------------|
A |----------------------------------------------------------------------| 
E |----------------------------------------------------------------------|

E |-17-17-17-17-17-17-17-17-17-17/22-22-22-22-22-22-20-20-20-20-20-| 
B |----------------------------------------------------------------|
G |----------------------------------------------------------------|
D |----------------------------------------------------------------|
A |----------------------------------------------------------------| 
E |----------------------------------------------------------------|

FOR THE LAST VERSE BOTH GUITARS PLAY

E |------|----------|
B |--5~--|--5---6~--|
G |--5~--|--5---7~--|
D |--5~--|--5---7~--|
A |--3~--|--3---5~--| 
E |------|----------|

THEN GUITAR ONE PLAYS

COS IV BEEN UP ALL NIGHT

E |----------------------------------------------|  PLAY THIS UNTIL
B |------------------------------------13--------|     THE CHROUS
G |--14-X-X-14-X-X-14-X-X-14-X-X-12-14----14-12--|
D |----------------------------------------------|
A |----------------------------------------------|
E |----------------------------------------------|

GUITAR 2 PLAY THE SAME CHORDS FOR CHORUS


GUITAR 1 PLAY THE SOLO AGAIN

ENJOY....

ALAN MC

RIP IT UP
            
Submit corrections


        Up All Night lessons Hard to play? Try these video lessons and learn fast Up All Night lessons
        
↑ Back to top | Tablatures and chords for acoustic guitar and electric guitar, ukulele, drums are parodies/interpretations of the original songs. You may use it for private study, scholarship, research or language learning purposes only