Home » R » Razorlight »

Razorlight - Kirbys House Tabs

Artists:  A B C D E F G H I J K L M N O P Q R S T U V W X Y Z # 

Kirbys House Tabs

(ver. 1) Click to play this song!
Razorlight
(Intro)
Band: Razorlight
Track: Kirby's House

Amazing song so yeah thought i'd attempt the itnro for y'all lol.



Standard Tuning [EADGBe]

Intro:

e|--------------------------------------------|
B|-------7------------------------------------|
G|------------9---9----7---7---9---9---7---7--|
D|--5s7-----7---7--------5-------7-------5----|
A|--------------------------------------------|
E|--------------------------------------------|

e|-------------5--------|
B|--8-7-5--------5------|
G|--------7--------7----|
D|-------------------7--|
A|----------------------|
E|----------------------|
            
Submit corrections

↑ Back to top | Tablatures and chords for acoustic guitar and electric guitar, ukulele, drums are parodies/interpretations of the original songs. You may use it for private study, scholarship, research or language learning purposes only