» » »

Razorlight - Golden Touch Tabs

Artists:  A B C D E F G H I J K L M N O P Q R S T U V W X Y Z # 

Golden Touch Tabs

(ver. 3) Click to play this song!
Razorlight
 Rating:
2.4/5 (59 votes)

 Golden Touch lessons Tabs too difficult? Try these video lessons and learn fast
 
                Golden Touch by Razorlight with lyrics.             |
Ear-transcribed from acoustic version.              |
                                                    |
If you like this tab please vote.                   |
____________________________________________________|


NOTE: Play Intro/Verse/Outro short (mute strings after each strum) and let strings ring 
Chorus.
NOTE: ^ means strum up, all other parts are strummed down.

Tuning: Standard

(Played fast)

INTRO/VERSE

    B                         ^   ^
e|--2---2---2---2---2---2---2-2-2-2--|
B|--4---4---4---4---4---4---4-4-4-4--|
G|--4---4---4---4---4---4---4-4-4-4--|
D|--4---4---4---4---4---4---4-4-4-4--|
A|--2---2---2---2---2---2---2---2----|
E|-----------------------------------|

VERSE

   C#m                        ^   ^ A              G#m
e|--4---4---4---4---4---4---4-4-4-4-5---5---5---5---4---4---4---4---|
B|--5---5---5---5---5---5---5-5-5-5-5---5---5---5---4---4---4---4---|
G|--6---6---6---6---6---6---6-6-6-6-6---6---6---6---4---4---4---4---|
D|--6---6---6---6---6---6---6-6-6-6-7---7---7---7---6---6---6---6---|
A|--4---4---4---4---4---4---4---4---7---7---7---7---6---6---6---6---|
E|------------------------------------------------------------------|
                                               I know a girl with the golden

   C#m                        ^   ^ A              G#m
e|--4---4---4---4---4---4---4-4-4-4-5---5---5---5---4---4---4---4---|
B|--5---5---5---5---5---5---5-5-5-5-5---5---5---5---4---4---4---4---|
G|--6---6---6---6---6---6---6-6-6-6-6---6---6---6---4---4---4---4---|
D|--6---6---6---6---6---6---6-6-6-6-7---7---7---7---6---6---6---6---|
A|--4---4---4---4---4---4---4---4---7---7---7---7---6---6---6---6---|
E|------------------------------------------------------------------|
    touch                                     She's got enough she's got too

   C#m                        ^   ^ F#                 G#m
e|--4---4---4---4---4---4---4-4-4-4-9----9----9----9----4---4---4---4---|
B|--5---5---5---5---5---5---5-5-5-5-11---11---11---11---4---4---4---4---|
G|--6---6---6---6---6---6---6-6-6-6-11---11---11---11---4---4---4---4---|
D|--6---6---6---6---6---6---6-6-6-6-11---11---11---11---6---6---6---6---|
A|--4---4---4---4---4---4---4---4---9----9----9----9----6---6---6---6---|
E|----------------------------------------------------------------------|
    much                                      But I     know, you wouldn't

   C#m                        ^   ^ A              G#m
e|--4---4---4---4---4---4---4-4-4-4-5---5---5---5---4---4---4---4---|
B|--5---5---5---5---5---5---5-5-5-5-5---5---5---5---4---4---4---4---|
G|--6---6---6---6---6---6---6-6-6-6-6---6---6---6---4---4---4---4---|
D|--6---6---6---6---6---6---6-6-6-6-7---7---7---7---6---6---6---6---|
A|--4---4---4---4---4---4---4---4---7---7---7---7---6---6---6---6---|
E|------------------------------------------------------------------|
    mind                                   You could |all if you wanted
                                           ..have it |

    A              G#m             C#m                        ^   ^
e|--5---5---5---5---4---4---4---4---4---4---4---4---4---4---4-4-4-4--|
B|--5---5---5---5---4---4---4---4---5---5---5---5---5---5---5-5-5-5--|
G|--6---6---6---6---4---4---4---4---6---6---6---6---6---6---6-6-6-6--|
D|--7---7---7---7---6---6---6---6---6---6---6---6---6---6---6-6-6-6--|
A|--7---7---7---7---6---6---6---6---4---4---4---4---4---4---4---4----|
E|-------------------------------------------------------------------|
           You could |all if it    |much
           ..have it |mattered so  |

   C#m                        ^   ^
e|--4---4---4---4---4---4---4-4-4-4--|
B|--5---5---5---5---5---5---5-5-5-5--|
G|--6---6---6---6---6---6---6-6-6-6--|
D|--6---6---6---6---6---6---6-6-6-6--|
A|--4---4---4---4---4---4---4---4----|
E|-----------------------------------|
                             But then...

CHORUS

   C#m              B               A              G#m      B
e|--4---4---4---4---7---7---7---7---5---5---5---5---4---4---7---7-|
B|--5---5---5---5---7---7---7---7---5---5---5---5---4---4---7---7-|
G|--6---6---6---6---8---8---8---8---6---6---6---6---4---4---8---8-|
D|--6---6---6---6---9---9---9---9---7---7---7---7---6---6---9---9-|
A|--4---4---4---4---9---9---9---9---7---7---7---7---6---6---9---9-|
E|----------------------------------------------------------------|
    All         they know         is how to put you down..        When you're

   C#m              B               A              G#m      B
e|--4---4---4---4---7---7---7---7---5---5---5---5---4---4---7---7-|
B|--5---5---5---5---7---7---7---7---5---5---5---5---4---4---7---7-|
G|--6---6---6---6---8---8---8---8---6---6---6---6---4---4---8---8-|
D|--6---6---6---6---9---9---9---9---7---7---7---7---6---6---9---9-|
A|--4---4---4---4---9---9---9---9---7---7---7---7---6---6---9---9-|
E|----------------------------------------------------------------|
    there        they're your friend but then when your not around.. They say

   C#m              B               A              G#m      B
e|--4---4---4---4---7---7---7---7---5---5---5---5---4---4---7---7-|
B|--5---5---5---5---7---7---7---7---5---5---5---5---4---4---7---7-|
G|--6---6---6---6---8---8---8---8---6---6---6---6---4---4---8---8-|
D|--6---6---6---6---9---9---9---9---7---7---7---7---6---6---9---9-|
A|--4---4---4---4---9---9---9---9---7---7---7---7---6---6---9---9-|
E|----------------------------------------------------------------|
    "Oh,        she's changed"          you know what they mean. Well they

   C#m              B               A                           B
e|--4---4---4---4---7---7---7---7---5---5---5---5---5---5---5---7-|
B|--5---5---5---5---7---7---7---7---5---5---5---5---5---5---5---7-|
G|--6---6---6---6---8---8---8---8---6---6---6---6---6---6---6---8-|
D|--6---6---6---6---9---9---9---9---7---7---7---7---7---7---7---9-|
A|--4---4---4---4---9---9---9---9---7---7---7---7---7---7---7---9-|
E|----------------------------------------------------------------|
     mean, they're just jealous, because they never do the things, they wish that they 
do so...

VERSE

   C#m                        ^   ^
e|--4---4---4---4---4---4---4-4-4-4--|
B|--5---5---5---5---5---5---5-5-5-5--|
G|--6---6---6---6---6---6---6-6-6-6--|
D|--6---6---6---6---6---6---6-6-6-6--|
A|--4---4---4---4---4---4---4---4----|
E|-----------------------------------|
    well

   C#m                        ^   ^ A              G#m
e|--4---4---4---4---4---4---4-4-4-4-5---5---5---5---4---4---4---4---|
B|--5---5---5---5---5---5---5-5-5-5-5---5---5---5---4---4---4---4---|
G|--6---6---6---6---6---6---6-6-6-6-6---6---6---6---4---4---4---4---|
D|--6---6---6---6---6---6---6-6-6-6-7---7---7---7---6---6---6---6---|
A|--4---4---4---4---4---4---4---4---7---7---7---7---6---6---6---6---|
E|------------------------------------------------------------------|
                                              The kind of girl, yeah
she's never

   C#m                        ^   ^ A              G#m
e|--4---4---4---4---4---4---4-4-4-4-5---5---5---5---4---4---4---4---|
B|--5---5---5---5---5---5---5-5-5-5-5---5---5---5---4---4---4---4---|
G|--6---6---6---6---6---6---6-6-6-6-6---6---6---6---4---4---4---4---|
D|--6---6---6---6---6---6---6-6-6-6-7---7---7---7---6---6---6---6---|
A|--4---4---4---4---4---4---4---4---7---7---7---7---6---6---6---6---|
E|------------------------------------------------------------------|
    alone                                     You leave a thousand messages on her

   C#m                        ^   ^ F#                 G#m
e|--4---4---4---4---4---4---4-4-4-4-9----9----9----9----4---4---4---4---|
B|--5---5---5---5---5---5---5-5-5-5-11---11---11---11---4---4---4---4---|
G|--6---6---6---6---6---6---6-6-6-6-11---11---11---11---4---4---4---4---|
D|--6---6---6---6---6---6---6-6-6-6-11---11---11---11---6---6---6---6---|
A|--4---4---4---4---4---4---4---4---9----9----9----9----6---6---6---6---|
E|----------------------------------------------------------------------|
    phone                                     But you know you never get

   C#m                        ^   ^ A              G#m
e|--4---4---4---4---4---4---4-4-4-4-5---5---5---5---4---4---4---4---|
B|--5---5---5---5---5---5---5-5-5-5-5---5---5---5---4---4---4---4---|
G|--6---6---6---6---6---6---6-6-6-6-6---6---6---6---4---4---4---4---|
D|--6---6---6---6---6---6---6-6-6-6-7---7---7---7---6---6---6---6---|
A|--4---4---4---4---4---4---4---4---7---7---7---7---6---6---6---6---|
E|------------------------------------------------------------------|
    through                                 You could have it all if you want it yeah

    A              G#m             C#m                        ^   ^
e|--5---5---5---5---4---4---4---4---4---4---4---4---4---4---4-4-4-4--|
B|--5---5---5---5---4---4---4---4---5---5---5---5---5---5---5-5-5-5--|
G|--6---6---6---6---4---4---4---4---6---6---6---6---6---6---6-6-6-6--|
D|--7---7---7---7---6---6---6---6---6---6---6---6---6---6---6-6-6-6--|
A|--7---7---7---7---6---6---6---6---4---4---4---4---4---4---4---4----|
E|-------------------------------------------------------------------|
             You could have it..   |you
           ..all if it matters to  |

   C#m                        ^   ^
e|--4---4---4---4---4---4---4-4-4-4--|
B|--5---5---5---5---5---5---5-5-5-5--|
G|--6---6---6---6---6---6---6-6-6-6--|
D|--6---6---6---6---6---6---6-6-6-6--|
A|--4---4---4---4---4---4---4---4----|
E|-----------------------------------|
                             But then...

CHORUS

   C#m              B               A              G#m      B
e|--4---4---4---4---7---7---7---7---5---5---5---5---4---4---7---7-|
B|--5---5---5---5---7---7---7---7---5---5---5---5---4---4---7---7-|
G|--6---6---6---6---8---8---8---8---6---6---6---6---4---4---8---8-|
D|--6---6---6---6---9---9---9---9---7---7---7---7---6---6---9---9-|
A|--4---4---4---4---9---9---9---9---7---7---7---7---6---6---9---9-|
E|----------------------------------------------------------------|
    All         they know         is how to put you down..        When you're

   C#m              B               A              G#m      B
e|--4---4---4---4---7---7---7---7---5---5---5---5---4---4---7---7-|
B|--5---5---5---5---7---7---7---7---5---5---5---5---4---4---7---7-|
G|--6---6---6---6---8---8---8---8---6---6---6---6---4---4---8---8-|
D|--6---6---6---6---9---9---9---9---7---7---7---7---6---6---9---9-|
A|--4---4---4---4---9---9---9---9---7---7---7---7---6---6---9---9-|
E|----------------------------------------------------------------|
    there      they're your friend  oh then when your not around.. They say,

   C#m              B               A              G#m      B
e|--4---4---4---4---7---7---7---7---5---5---5---5---4---4---7---7-|
B|--5---5---5---5---7---7---7---7---5---5---5---5---4---4---7---7-|
G|--6---6---6---6---8---8---8---8---6---6---6---6---4---4---8---8-|
D|--6---6---6---6---9---9---9---9---7---7---7---7---6---6---9---9-|
A|--4---4---4---4---9---9---9---9---7---7---7---7---6---6---9---9-|
E|----------------------------------------------------------------|
    "Ah,        she's changed"      oh you know what that means. Well it

   C#m              B               A                           B
e|--4---4---4---4---7---7---7---7---5---5---5---5---5---5---5---7-|
B|--5---5---5---5---7---7---7---7---5---5---5---5---5---5---5---7-|
G|--6---6---6---6---8---8---8---8---6---6---6---6---6---6---6---8-|
D|--6---6---6---6---9---9---9---9---7---7---7---7---7---7---7---9-|
A|--4---4---4---4---9---9---9---9---7---7---7---7---7---7---7---9-|
E|----------------------------------------------------------------|
    means, they're just jealous, but they'll never do the things that they wish that 
could do so...

VERSE

   C#m                        ^   ^
e|--4---4---4---4---4---4---4-4-4-4--|
B|--5---5---5---5---5---5---5-5-5-5--|
G|--6---6---6---6---6---6---6-6-6-6--|
D|--6---6---6---6---6---6---6-6-6-6--|
A|--4---4---4---4---4---4---4---4----|
E|-----------------------------------|
     well

   C#m                        ^   ^ A              G#m
e|--4---4---4---4---4---4---4-4-4-4-5---5---5---5---4---4---4---4---|
B|--5---5---5---5---5---5---5-5-5-5-5---5---5---5---4---4---4---4---|
G|--6---6---6---6---6---6---6-6-6-6-6---6---6---6---4---4---4---4---|
D|--6---6---6---6---6---6---6-6-6-6-7---7---7---7---6---6---6---6---|
A|--4---4---4---4---4---4---4---4---7---7---7---7---6---6---6---6---|
E|------------------------------------------------------------------|
                                               I saw my girl with the golden

   C#m                        ^   ^ A              G#m
e|--4---4---4---4---4---4---4-4-4-4-5---5---5---5---4---4---4---4---|
B|--5---5---5---5---5---5---5-5-5-5-5---5---5---5---4---4---4---4---|
G|--6---6---6---6---6---6---6-6-6-6-6---6---6---6---4---4---4---4---|
D|--6---6---6---6---6---6---6-6-6-6-7---7---7---7---6---6---6---6---|
A|--4---4---4---4---4---4---4---4---7---7---7---7---6---6---6---6---|
E|------------------------------------------------------------------|
    touch                                    Give them a taste but not too

   C#m                        ^   ^ F#                 G#m
e|--4---4---4---4---4---4---4-4-4-4-9----9----9----9----4---4---4---4---|
B|--5---5---5---5---5---5---5-5-5-5-11---11---11---11---4---4---4---4---|
G|--6---6---6---6---6---6---6-6-6-6-11---11---11---11---4---4---4---4---|
D|--6---6---6---6---6---6---6-6-6-6-11---11---11---11---6---6---6---6---|
A|--4---4---4---4---4---4---4---4---9----9----9----9----6---6---6---6---|
E|----------------------------------------------------------------------|
    much                                      I just can't listen to the words of

   C#m                        ^   ^ A              G#m
e|--4---4---4---4---4---4---4-4-4-4-5---5---5---5---4---4---4---4---|
B|--5---5---5---5---5---5---5-5-5-5-5---5---5---5---4---4---4---4---|
G|--6---6---6---6---6---6---6-6-6-6-6---6---6---6---4---4---4---4---|
D|--6---6---6---6---6---6---6-6-6-6-7---7---7---7---6---6---6---6---|
A|--4---4---4---4---4---4---4---4---7---7---7---7---6---6---6---6---|
E|------------------------------------------------------------------|
    fools                                     But don't give away too much

   C#m                        ^   ^ A              G#m
e|--4---4---4---4---4---4---4-4-4-4-5---5---5---5---4---4---4---4---|
B|--5---5---5---5---5---5---5-5-5-5-5---5---5---5---4---4---4---4---|
G|--6---6---6---6---6---6---6-6-6-6-6---6---6---6---4---4---4---4---|
D|--6---6---6---6---6---6---6-6-6-6-7---7---7---7---6---6---6---6---|
A|--4---4---4---4---4---4---4---4---7---7---7---7---6---6---6---6---|
E|------------------------------------------------------------------|
                                            Someone will need your golden

   C#m                        ^   ^
e|--4---4---4---4---4---4---4-4-4-4--|
B|--5---5---5---5---5---5---5-5-5-5--|
G|--6---6---6---6---6---6---6-6-6-6--|
D|--6---6---6---6---6---6---6-6-6-6--|
A|--4---4---4---4---4---4---4---4----|
E|-----------------------------------|
    touch                   Because...

CHORUS

   C#m              B               A              G#m      B
e|--4---4---4---4---7---7---7---7---5---5---5---5---4---4---7---7-|
B|--5---5---5---5---7---7---7---7---5---5---5---5---4---4---7---7-|
G|--6---6---6---6---8---8---8---8---6---6---6---6---4---4---8---8-|
D|--6---6---6---6---9---9---9---9---7---7---7---7---6---6---9---9-|
A|--4---4---4---4---9---9---9---9---7---7---7---7---6---6---9---9-|
E|----------------------------------------------------------------|
    All         they know         is how to put you down..        When you're

   C#m              B               A              G#m      B
e|--4---4---4---4---7---7---7---7---5---5---5---5---4---4---7---7-|
B|--5---5---5---5---7---7---7---7---5---5---5---5---4---4---7---7-|
G|--6---6---6---6---8---8---8---8---6---6---6---6---4---4---8---8-|
D|--6---6---6---6---9---9---9---9---7---7---7---7---6---6---9---9-|
A|--4---4---4---4---9---9---9---9---7---7---7---7---6---6---9---9-|
E|----------------------------------------------------------------|
    there       your friend       but then when your not around.. They say,

   C#m              B               A              G#m      B
e|--4---4---4---4---7---7---7---7---5---5---5---5---4---4---7---7-|
B|--5---5---5---5---7---7---7---7---5---5---5---5---4---4---7---7-|
G|--6---6---6---6---8---8---8---8---6---6---6---6---4---4---8---8-|
D|--6---6---6---6---9---9---9---9---7---7---7---7---6---6---9---9-|
A|--4---4---4---4---9---9---9---9---7---7---7---7---6---6---9---9-|
E|----------------------------------------------------------------|
     "Oh,        she's changed"      oh you know what that means. Well it

   C#m              B               A              G#m      B
e|--4---4---4---4---7---7---7---7---5---5---5---5---4---4---7---7-|
B|--5---5---5---5---7---7---7---7---5---5---5---5---4---4---7---7-|
G|--6---6---6---6---8---8---8---8---6---6---6---6---4---4---8---8-|
D|--6---6---6---6---9---9---9---9---7---7---7---7---6---6---9---9-|
A|--4---4---4---4---9---9---9---9---7---7---7---7---6---6---9---9-|
E|----------------------------------------------------------------|
     means, they're just jealous, but they'll never do the things that they wish that 
could do so...

OUTRO (slow down)

   C#m                        ^   ^ A              G#m
e|--4---4---4---4---4---4---4-4-4-4-5---5---5---5---4---4---4---4---|
B|--5---5---5---5---5---5---5-5-5-5-5---5---5---5---4---4---4---4---|
G|--6---6---6---6---6---6---6-6-6-6-6---6---6---6---4---4---4---4---|
D|--6---6---6---6---6---6---6-6-6-6-7---7---7---7---6---6---6---6---|
A|--4---4---4---4---4---4---4---4---7---7---7---7---6---6---6---6---|
E|------------------------------------------------------------------|
    well                    No they'll never do..  |wish that they could..
                          ..the things that they   |..do so

   C#m                        ^   ^ A              G#m
e|--4---4---4---4---4---4---4-4-4-4-5---5---5---5---4---4---4---4---|
B|--5---5---5---5---5---5---5-5-5-5-5---5---5---5---4---4---4---4---|
G|--6---6---6---6---6---6---6-6-6-6-6---6---6---6---4---4---4---4---|
D|--6---6---6---6---6---6---6-6-6-6-7---7---7---7---6---6---6---6---|
A|--4---4---4---4---4---4---4---4---7---7---7---7---6---6---6---6---|
E|------------------------------------------------------------------|
    well                    They'll never do..     |wish that they could..
                          ..the things that they   |..do so

   C#m                        ^   ^ A              G#m
e|--4---4---4---4---4---4---4-4-4-4-5---5---5---5---4---4---4---4---|
B|--5---5---5---5---5---5---5-5-5-5-5---5---5---5---4---4---4---4---|
G|--6---6---6---6---6---6---6-6-6-6-6---6---6---6---4---4---4---4---|
D|--6---6---6---6---6---6---6-6-6-6-7---7---7---7---6---6---6---6---|
A|--4---4---4---4---4---4---4---4---7---7---7---7---6---6---6---6---|
E|------------------------------------------------------------------|
    well                    They'll never do..     |wish that they could..
                          ..the things that they   |..do so

   C#m
e|--4---------------------------------------------------------------|
B|--5---------------------------------------------------------------|
G|--6--*let ring----------------------------------------------------|
D|--6---------------------------------------------------------------|
A|--4---------------------------------------------------------------|
E|------------------------------------------------------------------|
    well
            
Submit corrections


        Golden Touch lessons Hard to play? Try these video lessons and learn fast Golden Touch lessons
        
↑ Back to top | Tablatures and chords for acoustic guitar and electric guitar, ukulele, drums are parodies/interpretations of the original songs. You may use it for private study, scholarship, research or language learning purposes only