Home » R » Razorlight »

Razorlight - Don't Go Back To Dalston Bass

Artists:  A B C D E F G H I J K L M N O P Q R S T U V W X Y Z # 

Don't Go Back To Dalston Bass

(ver. 2) Click to play this song!
Razorlight
Verse
G-------------------|
D-------------------|
A-2---25--5-0--0----| x3
E---------------3-5-|

Pre-chorus
G-----------------|
D-----------------|
A-2--2------------| x2
E-----5--5-3--3-5-|

Chorus
G------------------|
D------------------|
A-2222-------------|
E-----222233335555-|

Verse - x2

Pre-chorus - x2

Chorus - play till end
            
Submit corrections

↑ Back to top | Tablatures and chords for acoustic guitar and electric guitar, ukulele, drums are parodies/interpretations of the original songs. You may use it for private study, scholarship, research or language learning purposes only