» » »

Razorlight - Before I Fall To Pieces Tabs

Artists:  A B C D E F G H I J K L M N O P Q R S T U V W X Y Z # 

Before I Fall To Pieces Tabs

(ver. 1) Click to play this song!
Razorlight
 Rating:
4/5 (7 votes)

 Before I Fall To Pieces lessons Tabs too difficult? Try these video lessons and learn fast
 
                (Intro)
----------------------------------------------------------------------------
                 BEFORE I FALL TO PIECES-RAZORLIGHT
----------------------------------------------------------------------------
This is my first tab so please feel free to comment :)
I'll probably try to work out the rest of the song sometime soon.

Tuning: standard capo on 7th fret

Intro:
             v v ^ ^ v ^ v ^ v v ^ ^ v ^ v ^ v v ^ ^ v ^ v ^
e|0----------3-3-3-3-3-3-3-3-3-3-3-3-3-3-3-3-2-2-2-2-3-2-0-2--|
B|0----------3-3-3-3-3-3-3-3-3-3-3-3-3-3-3-3-3-3-3-3-3-3-3-3--|
G|0----------0-0-0-0-0-0-0-0-0-0-0-0-0-0-0-0-2-2-2-2-2-2-2-2--|
D|0----------0-0-0-0-0-0-0-0-2-2-2-2-2-2-2-2-0-0-0-0-0-0-0-0--|
A|0----------2-2-2-2-2-2-2-2-3-3-3-3-3-3-3-3------------------|
E|0----------3-3-3-3-3-3-3-3----------------------------------|

e|-----3----------------------3--------------------------------|
B|---3---3--5--3--5--3-----3-----3--5--3--5--3--3--3--3--------|
G|-4--------------------4--------------------------------------|
D|-------------------------------------------------------------|
A|-------------------------------------------------------------|
E|-------------------------------------------------------------|

e|-------3--------------------5--3--2--3--2--------------------|
B|----3-----3--5--3--5--3--------------------3-----------------|
G|-4-----------------------2-----------------------------------|
D|-------------------------------------------------------------|
A|-------------------------------------------------------------|
E|-------------------------------------------------------------|

e|-------3--------------------5--7--8--7--10---------------------------------|
B|----3-----3--5--3--5--3----------------------------------------------------|
G|-4-----------------------2-------------------------------------------------|
D|---------------------------------------------------------------------------|
A|---------------------------------------------------------------------------|
E|---------------------------------------------------------------------------|
            
Submit corrections


        Before I Fall To Pieces lessons Hard to play? Try these video lessons and learn fast Before I Fall To Pieces lessons
        
↑ Back to top | Tablatures and chords for acoustic guitar and electric guitar, ukulele, drums are parodies/interpretations of the original songs. You may use it for private study, scholarship, research or language learning purposes only