Home » R » Rascal Flatts »

Rascal Flatts - Long Time(cover Song) Tabs

Artists:  A B C D E F G H I J K L M N O P Q R S T U V W X Y Z # 

Long Time(cover Song) Tabs

(ver. 1) Click to play this song!
Rascal Flatts
 Rating:
4/5 (4 votes)
                Rascal Flatts, Long time (cover)



E--11b-11bh-----------13-15-13-15b-15bh--13h15p13----13~
B------------13-13h15-----------------------------15----
G-------------------------------------------------------
D-------------------------------------------------------
A-------------------------------------------------------
E-------------------------------------------------------

E/15-15-17-19-20--15h18p15----18p15----15/13-13---------
B--------------------------18-------18------------------
G-------------------------------------------------------
D-------------------------------------------------------
A-------------------------------------------------------
E-------------------------------------------------------

E-------13-------13----13-15-15b-15bh-------------
B-13-13----13-13----15----------------------------
G-------------------------------------------------
D-------------------------------------------------
A-------------------------------------------------
E-------------------------------------------------
            
Submit corrections

↑ Back to top | Tablatures and chords for acoustic guitar and electric guitar, ukulele, drums are parodies/interpretations of the original songs. You may use it for private study, scholarship, research or language learning purposes only