Home » R » Rancid »

Rancid - Fall Back Down Bass

Artists:  A B C D E F G H I J K L M N O P Q R S T U V W X Y Z # 

Fall Back Down Bass

(ver. 2) Click to play this song!
Rancid
 Rating:
4/5 (4 votes)
                G||-------------------|-------------------|-------------------|
D||-------------------|-------------------|-------------------|
A||-------------------|-------------------|-------------------|
E||-------------------|-------------------|-------------------|



               
------------------------|--------------------|-------------------|
------------------2-----|--2------------3----|--4----------------|
-----------2h--4-----4--|--------------------|-------------------|
------------------------|--------------------|-------------------|

    
-------------------|------------------------|--------------------|
-------------------|--2---------------2-----|--2------------3----|
--0----------------|-----------2h--4-----4--|--------------------|
-------------------|------------------------|--------------------|

 
-------------------|-------------------|------------------------|
--4----------------|-------------------|--2---------------2-----|
-------------------|--0----------------|-----------2h--4-----4--|
-------------------|-------------------|------------------------|

     
-------------------------|-------------------------|---------------------------|
--2----2--(2)--2----2----|--2--2--2--2--2--2--3----|--4--4--4--4--(4)--4--4----|
-------------------------|-------------------------|---------------------------|
-------------------------|-------------------------|---------------------------|


   
-------------------------|------------------------|------------------------|
--4--4--4----4--4--2-----|------------------------|------------------------|
----------------------4--|--0----0--0--0--0--0----|--0--0--0----0----2--4--|
-------------------------|------------------------|------------------------|


      
-------------------------|--------------------------|--------------------------|
--2----2--2--2--2--2--2--|--2--2--2--2--2-----------|--2----2--2--(2)--2--2----|
-------------------------|-----------------4--2--4--|--------------------------|
-------------------------|--------------------------|--------------------------|


     
-------------------------|---------------------------|
--2--2--2----2--2--3--3--|--4--4--4--4--(4)--4--4----|
-------------------------|---------------------------|
-------------------------|---------------------------|

    
--------------------------|--------------------------|
--4--4--4--4--4--4--2-----|--------------------------|
-----------------------4--|--0----0--0--(0)--0--0----|
--------------------------|--------------------------|


  
-----------------2--3--4--|--4----4--4--2----2--2--|--2--2------2--2--2--2--|
--------------------------|------------------------|------------------------|
--0--0--0--0--0-----------|------------------------|------------------------|
--------------------------|------------------------|------------------------|


      
--4----4--4--2----2--2--|--1----1--1-------------|-----------------------|
------------------------|-------------4--4--4----|--2----2--2--2----3----|
------------------------|------------------------|-----------------------|
------------------------|------------------------|-----------------------|


    
--------------------------|------------------------|-------------------------|
--4--4--4--4--4--4--4--4--|------------------------|--2--2--2----2-----------|
--------------------------|--0----0--0--0--0--0----|----------------4--2--4--|
--------------------------|------------------------|-------------------------|


    
-----------------------|--------------------------|------------------------|
--2----2--2--2----3----|--4--4--4--4--4--4--4--4--|------------------------|
-----------------------|--------------------------|--0----0--0--0--0--0----|
-----------------------|--------------------------|------------------------|


  
------------------------|-----------------------|--------------------------|
--2----2----------2-----|--2----2--2--2----3----|--4--4--4--4--4--4--4--4--|
------------2--4-----4--|-----------------------|--------------------------|
------------------------|-----------------------|--------------------------|


     
------------------------|-------------------------|-----------------------|
------------------------|--2--2--2----2-----------|--2----2--2--2----3----|
--0----0--0--0--0--0----|----------------4--2--4--|-----------------------|
------------------------|-------------------------|-----------------------|


     
--------------------------|------------------------|--------------------------|
--4--4--4--4--4--4--4--4--|------------------------|--2--2--2----2------------|
--------------------------|--0----0--0--0--0--0----|----------------0h--2--3--|
--------------------------|------------------------|--------------------------|


       
|--------------------------|--------------------------|
|*-------------------------|--------------------------|
|*--4----4--4--4--4--4--4--|--4--4--4--4--4--4--4--4--|
|--------------------------|--------------------------|


    
-------------------------|-----------------1--2--3--|--4--4--4--4--4--4--4--4--|
--2----2--2--2--2--2--2--|--2--2--2--2--2-----------|--------------------------|
-------------------------|--------------------------|--------------------------|
-------------------------|--------------------------|--------------------------|

   
--4--4--4--4--4----3--3--|--2--2--4--4--6--6--4--4--|
-------------------------|--------------------------|
-------------------------|--------------------------|
-------------------------|--------------------------|


   
--2--2---------------------||-----------------------|--------------------------|
--------4--4--2--2--------*||--2----2--2--2----3----|--4--4--4--4--4--4--4--4--|
--------------------4--2--*||-----------------------|--------------------------|
---------------------------||-----------------------|--------------------------|


       
------------------------|-------------------------|-----------------------|
------------------------|--2--2--2----2-----------|--2----2--2--2----3----|
--0----0--0--0--0--0----|----------------4--2--4--|-----------------------|
------------------------|-------------------------|-----------------------|


  
--------------------------|------------------------|-------------------------|
--4--4--4--4--4--4--4--4--|------------------------|--2--2--2----2-----------|
--------------------------|--0----0--0--0--0--0----|----------------4--2--4--|
--------------------------|------------------------|-------------------------|


       
-----------------------|--------------------------|------------------------|
--2----2--2--2----3----|--4--4--4--4--4--4--4--4--|------------------------|
-----------------------|--------------------------|--0----0--0--0--0--0----|
-----------------------|--------------------------|------------------------|


    
-------------------------|-----------------------|--------------------------|
--2--2--2----2-----------|--2----2--2--2----3----|--4--4--4--4--4--4--4--4--|
----------------4--2--4--|-----------------------|--------------------------|
-------------------------|-----------------------|--------------------------|


     
------------------------|-------------------------|-------------------------|
------------------------|--2--2--2----2-----------|--2----2--(2)--2----2----|
--0----0--0--0--0--0----|----------------4--2--4--|-------------------------|
------------------------|-------------------------|-------------------------|


   
-------------------------|---------------------------|-------------------------|
--2--2--2--2--2--2--3----|--4--4--4--4--(4)--4--4----|--4--4--4----4--4--2-----|
-------------------------|---------------------------|----------------------4--|
-------------------------|---------------------------|-------------------------|


 
------------------------|------------------------|-------------------------|
------------------------|------------------------|--2----2--2--2--2--2--2--|
--0----0--0--0--0--0----|--0--0--0----0----2--4--|-------------------------|
------------------------|------------------------|-------------------------|


  
--------------------------|--------------------------|-------------------------|
--2--2--2--2--2-----------|--2----2--2--(2)--2--2----|--2--2--2----2--2--3--3--|
-----------------4--2--4--|--------------------------|-------------------------|
--------------------------|--------------------------|-------------------------|


  
---------------------------|--------------------------|
--4--4--4--4--(4)--4--4----|--4--4--4--4--4--4--2-----|
---------------------------|-----------------------4--|
---------------------------|--------------------------|


   
--------------------------|-----------------2--3--4--|--4----4--4--2----2--2--|
--------------------------|--------------------------|------------------------|
--0----0--0--(0)--0--0----|--0--0--0--0--0-----------|------------------------|
--------------------------|--------------------------|------------------------|


      
--2--2------2--2--2--2--|--4----4--4--2----2--2--|--1----1--1-------------|
------------------------|------------------------|-------------4--4--4----|
------------------------|------------------------|------------------------|
------------------------|------------------------|------------------------|


      
-----------------------|--------------------------|------------------------|
--2----2--2--2----3----|--4--4--4--4--4--4--4--4--|------------------------|
-----------------------|--------------------------|--0----0--0--0--0--0----|
-----------------------|--------------------------|------------------------|

 
-------------------------|-----------------------|--------------------------|
--2--2--2----2-----------|--2----2--2--2----3----|--4--4--4--4--4--4--4--4--|
----------------4--2--4--|-----------------------|--------------------------|
-------------------------|-----------------------|--------------------------|

  
------------------------|------------------------|-----------------------|
------------------------|--2----2----------2-----|--2----2--2--2----3----|
--0----0--0--0--0--0----|------------2--4-----4--|-----------------------|
------------------------|------------------------|-----------------------|


  
--------------------------|------------------------|-------------------------|
--4--4--4--4--4--4--4--4--|------------------------|--2--2--2----2-----------|
--------------------------|--0----0--0--0--0--0----|----------------4--2--4--|
--------------------------|------------------------|-------------------------|


     
-----------------------|--------------------------|------------------------|
--2----2--2--2----3----|--4--4--4--4--4--4--4--4--|------------------------|
-----------------------|--------------------------|--0----0--0--0--0--0----|
-----------------------|--------------------------|------------------------|


    
--------------------------||--------------------------|
--2--2--2----2------------||*-------------------------|
----------------0h--2--3--||*--4----4--4--4--4--4--4--|
--------------------------||--------------------------|

 
--------------------------|-------------------------|-----------------1--2--3--|
--------------------------|--2----2--2--2--2--2--2--|--2--2--2--2--2-----------|
--4--4--4--4--4--4--4--4--|-------------------------|--------------------------|
--------------------------|-------------------------|--------------------------|


   
--4--4--4--4--4--4--4--4--|--4--4--4--4--4----3--3--|--2--2--4--4--6--6--4--4--|
--------------------------|-------------------------|--------------------------|
--------------------------|-------------------------|--------------------------|
--------------------------|-------------------------|--------------------------|


        
--2--2---------------------||----------------------|---------------------|
--------4--4--2--2--------*||*--2----2-------------|--4----4-------------|
--------------------4--2--*||*---------------------|---------------------|
---------------------------||----------------------|---------------------|


   
---------------------|--------------------------||-----------------------|
---------------------|--2----2-----------2-----*||--2----2--2--2----3----|
--0----0-------------|------------2h--4-----4--*||-----------------------|
---------------------|--------------------------||-----------------------|


   
--------------------------|------------------------|-------------------------|
--4--4--4--4--4--4--4--4--|------------------------|--2--2--2----2-----------|
--------------------------|--0----0--0--0--0--0----|----------------4--2--4--|
--------------------------|------------------------|-------------------------|

    
-----------------------|--------------------------|------------------------|
--2----2--2--2----3----|--4--4--4--4--4--4--4--4--|------------------------|
-----------------------|--------------------------|--0----0--0--0--0--0----|
-----------------------|--------------------------|------------------------|


 
------------------------|-----------------------|--------------------------|
--2----2----------2-----|--2----2--2--2----3----|--4--4--4--4--4--4--4--4--|
------------2--4-----4--|-----------------------|--------------------------|
------------------------|-----------------------|--------------------------|


   
------------------------|-------------------------|-----------------------|
------------------------|--2--2--2----2-----------|--2----2--2--2----3----|
--0----0--0--0--0--0----|----------------4--2--4--|-----------------------|
------------------------|-------------------------|-----------------------|


  
--------------------------|------------------------|-------------------------|
--4--4--4--4--4--4--4--4--|------------------------|--2--2--2----2-----------|
--------------------------|--0----0--0--0--0--0----|----------------4--2--4--|
--------------------------|------------------------|-------------------------|


    
-----------------------|--------------------------|------------------------|
--2----2--2--2----3----|--4--4--4--4--4--4--4--4--|------------------------|
-----------------------|--------------------------|--0----0--0--0--0--0----|
-----------------------|--------------------------|------------------------|


  
-------------------------|-----------------------|--------------------------|
--2--2--2----2-----------|--2----2--2--2----3----|--4--4--4--4--4--4--4--4--|
----------------4--2--4--|-----------------------|--------------------------|
-------------------------|-----------------------|--------------------------|


   
------------------------|------------------------|-----------------------|
------------------------|--2----2----------2-----|--2----2--2--2----3----|
--0----0--0--0--0--0----|------------2--4-----4--|-----------------------|
------------------------|------------------------|-----------------------|


   
--------------------------|------------------------|-------------------------|
--4--4--4--4--4--4--4--4--|------------------------|--2--2--2----2-----------|
--------------------------|--0----0--0--0--0--0----|----------------4--2--4--|
--------------------------|------------------------|-------------------------|


   
-----------------------|--------------------------|------------------------|
--2----2--2--2----3----|--4--4--4--4--4--4--4--4--|------------------------|
-----------------------|--------------------------|--0----0--0--0--0--0----|
-----------------------|--------------------------|------------------------|

  
-------------------------|-----------------------|------------------------|
--2--2--2----2-----------|--2----2--2--2----3----|--4--4--4----4--4--4----|
----------------4--2--4--|-----------------------|------------------------|
-------------------------|-----------------------|------------------------|


               
--6--4--2--4--2-----2-----|---------------------------|-------------------|
-----------------4-----4--|--2-----2h--4--2-----------|--2----------------|
--------------------------|-----4------------4--2--4--|-------------------|
--------------------------|---------------------------|-------------------|


                 
-------------------|-------------------|-------------------||
--L----------------|--L----------------|--L----------------||
-------------------|-------------------|-------------------||
-------------------|-------------------|-------------------||
            
Submit corrections

↑ Back to top | Tablatures and chords for acoustic guitar and electric guitar, ukulele, drums are parodies/interpretations of the original songs. You may use it for private study, scholarship, research or language learning purposes only