» » »

Rancid - Fall Back Down Tabs

Artists:  A B C D E F G H I J K L M N O P Q R S T U V W X Y Z # 

Fall Back Down Tabs

(ver. 3) Click to play this song!
Rancid
 Rating:
4/5 (4 votes)

 Fall Back Down lessons Tabs too difficult? Try these video lessons and learn fast
 
                Rancid
Fall Back Down

Chords
    E   F#m     A5      B5     E5    F#5    C#5    E7       A
|--------2---------------------------------------------------------|
|--------2------------------------------------------9-------2------|
|---1----3-------2------4--------------------6------9-------2------|
|---2----4-------2------4------2------4------6------9-------2------|
|---2----4-------0------2------2------4------4------7--------------|
|--------2---------------------0------2----------------------------|


Intro (Clean)
E F#m A E

1st Verse (Dist.)
E F#m A E

A5                       A5
She's Not the one coming back for you...

Chorus
E5 F#5 A5 E5

Bridge
C#5 E7 B5 A5

Interlude
(havent figure out)

2nd Verse
E5 F#5 A5 E5

Guitar Solo
|-------------------------------------------------------------------------------------
|-------------------------------------------------------------------------------------
|-------------------------------------------------------------------------------------
|-------------------------------------------------------------------------------------
|-------------------------------------------------------------------------------------
|---8--7--8--7--(8)----10--8/(8)--7--(8)---10--8/(8)--8-----8/7/(7)---7----7-(7)---7--

-----------------------------------------------|
-----------------------------------------------|
-----------------------------------------------|
-----------------------------------------------|
-----------------------------------------------|
-----7/5--(5)-----(5)-----8--7--8--7----(5)----|

Outro
E F#m A5 E

I'm 100% of this song, i got it off guitar world. Im just to lazy to tab the Interlude... Sorry!.

IF you don't like it.... WELL *** IT!!!
Giovanni Caligaris
            
Submit corrections


        Fall Back Down lessons Hard to play? Try these video lessons and learn fast Fall Back Down lessons
        
↑ Back to top | Tablatures and chords for acoustic guitar and electric guitar, ukulele, drums are parodies/interpretations of the original songs. You may use it for private study, scholarship, research or language learning purposes only