Home » R » Ramones »

Ramones - We Want The Airwaves Bass

Artists:  A B C D E F G H I J K L M N O P Q R S T U V W X Y Z # 

We Want The Airwaves Bass

(ver. 2) Click to play this song!
Ramones
Intro
G-----------------------------|
D-----------------------------|
A-------------------5-5-5-3-2-|
E-5-5-5-7-7-7-8-8-8-----------|

G-------------------------------|
D-------------------------------|
A-3-3-3-2-2-2-------------------|
E-------------5-5-5-3-3-3-5-7-3-|

G------------------------|
D------------------------|
A------------------------|
E-0-3-5-3-5--1-1-1-0-0-0-|

G-----------------------------|
D-----------------------------|
A-------------------5-5-5-3-2-|
E-5-5-5-7-7-7-8-8-8-----------|

G-------------------------------|
D-------------------------------|
A-3-3-3-2-2-2-------------------|
E-------------5-5-5-3-3-3-5-7-3-|

G-------------------------------------------|
D-------------------------------------------|
A-----------7-5-3-5-------------------------|
E-0-3-5-3-5---------5-5-5/7-7-7/10-10-10-10-|

Verse/Chorus
G---------------------------------|
D---------------------------------|
A---------------------------------|
E-5-5-5-5-5-5-5-5-1-1-1-3-3-3-3-3-|

"Ah yeah, all right, let's rock, tonight"
G-------------------------------------------------|
D-------------------------------------------------|
A-------------------------------------------------|
E-5-5-5-5-5-5-5-5-1-1-1-1-1-1-1-1-3-3-3-3-3-3-3-3-|

Listen for order
            
Submit corrections

↑ Back to top | Tablatures and chords for acoustic guitar and electric guitar, ukulele, drums are parodies/interpretations of the original songs. You may use it for private study, scholarship, research or language learning purposes only