Home » R » Ramones »

Ramones - The Kkk Took My Baby Away Tabs

Artists:  A B C D E F G H I J K L M N O P Q R S T U V W X Y Z # 

The Kkk Took My Baby Away Tabs

(ver. 1) Click to play this song!
Ramones
Artist- The Ramones
Title-  The KKK Took my Baby Away
Album-  Loco Live




      Ab5
e--------------------
b--------------------
g--------------------
d----6-6-6-6-6-------
a----6-6-6-6-6-------
E----4-4-4-4-4--(4x)-



      Ab5                   F5               Bb5                Eb5
e-------------------------------------------------------------------------------------
b-------------------------------------------------------------------------------------
g------------------------------------------------------------88888888-----------------
d----6-6-6-6-6-----------3-3-3-3-3--------8-8-8-8-8----------88888888-----------------
a----6-6-6-6-6--(2x)-----3-3-3-3-3--(2x)--8-8-8-8-8--(2x)----66666666-----------------
E----4-4-4-4-4-----------1-1-1-1-1--------6-6-6-6-6---------------------WHOLE THING 2x

She went away for the holidays
Said she's going to L.A.
But she never got there, she never got there
She never got there, they say

She went away for the holidays
Said she's going to L.A.
But she never got there, she never got there
She never got there, they say


    
        Ab5          C#5       Eb5
e-------------------------------------------------------------------------
b-------------------------------------------------------------------------
g------------------6666666---8888888--------------------------------------
d---666666666666---6666666---8888888--------------------------------------
a---666666666666---4444444---6666666--------------------------------------
E---444444444444--------------------------(2x)----------------------------

The KKK took my baby away
They took her away, away from me

The KKK took my baby away
They took her away, away from me




      Ab5
e--------------------
b--------------------
g--------------------
d----6-6-6-6-6-------
a----6-6-6-6-6-------
E----4-4-4-4-4--(4x)-
   Hey, Ho, Hey,Ho





   Ab5                 C#5       Eb5
e-------------------------------------------------------------------------
b-------------------------------------------------------------------------
g--------------------6666666---8888888------------------------------------
d-6-6-6-6-6----------6666666---8888888------------------------------------
a-6-6-6-6-6--(2x)----4444444---6666666------------------------------------
E-4-4-4-4-4----------------------------------------WHOLE THING 2 TIMES----

    
Now I don't know where my baby can be
They took her from me, they took her from me

I don't know where my baby can be
They took her from me, they took her from me





     C#5          Eb5                   Bb5         Eb5
e--------------------------------|------------------------------------
b--------------------------------|------------------------------------
g--6666666666--8888888888--------|---------------888888888------------
d--6666666666--8888888888--------|----888888888--888888888------------
a--4444444444--6666666666---(3x)-|----888888888--666666666------------
E--------------------------------|----666666666-----------------------

Ring me, ring me, ring me up the president
And find out Where my baby went
Ring me, ring me, ring me up the FBI

And find out if my baby's alive, yeah, yeah, yeah

 

     Ab5               C#5                 Eb5
e----------------------------------------------------------------------------
b----------------------------------------------------------------------------
g---------------------66666666---8888888888888888888888----------------------
d----6-6-6-6-6--------66666666---8888888888888888888888-----WHOLE THING 2x---
a----6-6-6-6-6--------44444444---6666666666666666666666----------------------
E----4-4-4-4-4-(2x)----------------------------------------------------------

Oh-oh-oh-oh-oh-oh


      Ab5
e--------------------
b--------------------
g--------------------
d----6-6-6-6-6-------
a----6-6-6-6-6-------
E----4-4-4-4-4--(4x)-



      Ab5                   F5               Bb5                Eb5
e----------------------------------------------------------------------------------
b----------------------------------------------------------------------------------
g------------------------------------------------------------88888888--------------
d----6-6-6-6-6-----------3-3-3-3-3--------8-8-8-8-8----------88888888--------------
a----6-6-6-6-6--(2x)-----3-3-3-3-3--(2x)--8-8-8-8-8--(2x)----66666666--------------
E----4-4-4-4-4-----------1-1-1-1-1--------6-6-6-6-6------------------WHOLE THING 2x

She went away for the holidays
Said she's going to L.A.
But she never got there, she never got there
She never got there, they say

She went away for the holidays
Said she's going to L.A.
But she never got there, she never got there
She never got there, they say


    
        Ab5          C#5       Eb5
e----------------------------------------------------
b----------------------------------------------------
g------------------6666666---8888888-----------------
d---666666666666---6666666---8888888-----------------
a---666666666666---4444444---6666666-----------------
E---444444444444--------------------------(4x)-------

The KKK took my baby away
They took her away, away from me

The KKK took my baby away
They took her away, away from me

The KKK took my baby away
They took her away, away from me

The KKK took my baby away
They took her away, away from me

End on:


      Ab5
e--------------------
b--------------------
g--------------------
d----6-6-6-6-6-------
a----6-6-6-6-6-------
E----4-4-4-4-4--(2x)-
            
Submit corrections

↑ Back to top | Tablatures and chords for acoustic guitar and electric guitar, ukulele, drums are parodies/interpretations of the original songs. You may use it for private study, scholarship, research or language learning purposes only