Home » R » Ramones »

Ramones - Rockaway Beach Bass

Artists:  A B C D E F G H I J K L M N O P Q R S T U V W X Y Z # 

Rockaway Beach Bass

(ver. 3) Click to play this song!
Ramones
riff 1
G------------------------------------------|
D------------------------------------------|
A---4-5-5-5-5-5-5-5-5-5-5-5-5-5-5-5--------|
E------------------------------------------|

riff 2
G------------------------------------------|
D---6-7-7-7-7-7-7-7------------------------|
A------------------------------------------|
E------------------------------------------|

riff 3
G------------------------------------------|
D------------------------------------------|
A---5----5-5-5-5-5-5-5-5-5-5-5-5-5-5-5-----|
E------------------------------------------|

riff 4
G------------------------------------------|
D------------------------------------------|
A---7----7-7-7-7-7-7-7-7-7-7-7-7-7-7-7-----|
E------------------------------------------|

riff 5  (chorus)
G------------------------------------------|
D------------------------------------------|
A------------------------------------------|
E---5----5-5-5-5-5-5-5-5-5-5-5-5-5---------|

G------------------------------------------|
D------------------------------------------|
A---5----5-5-5-5-5-5-5-5-5-5-5-5-5---------|
E------------------------------------------|

G------------------------------------------|
D------------------------------------------|
A------------------------------------------|
E---5----5-5-5-5-5-5-5-5-5-5-5-5-5---------|

G------------------------------------------|
D------------------------------------------|
A---7-7-7-7-7-7-7-7-7-7-7-7-7-7-7-7--------|
E------------------------------------------|

riff 6
G------------------------------------------|
D---5--------------------------------------|
A-----5---5-5-5-5-5-5-5--------------------|
E------------------------------------------|

G------------------------------------------|
D---3--------------------------------------|
A-----3---3-3-3-3-3-3-3--------------------|
E------------------------------------------|

riff 7
G------------------------------------------|
D------------------------------------------|
A------------------------------------------|
E---2-2----2-2-2-2-2-2-2-2-2-2-2-2-2-------|

G------------------------------------------|
D------------------------------------------|
A------------------------------------------|
E---5-5----5-5-5-5-5-5-5-5-5-5-5-5-5-------|

G------------------------------------------|
D------------------------------------------|
A------------------------------------------|
E---2-2----2-2-2-2-2-2-2-2-2-2-2-2-2-------|

G------------------------------------------|
D------------------------------------------|
A---5---5-5-5-5-5-5-5---7---7-7-7-7-7-7-7--|
E------------------------------------------|

ending
G---------|
D---------|
A--5------|
E----5----|


music order

riff 1  2x
riff 2  4x
riff 3  1x
riff 4  1x
riff 2  4x
riff 3  1x
riff 4  1x
riff 5 (chorus) 2x
riff 6  2x
riff 7  1x

riff 2  4x
riff 3  1x
riff 4  1x
riff 2  4x
riff 3  1x
riff 4  1x
riff 5 (chorus) 1x
riff 6  2x
ending  1x

riff 5 (chorus) 2x
ending  1x


sorry for any mistakes, it was hard to count the number of notes for each riff.  
please comment/rate
            
Submit corrections

↑ Back to top | Tablatures and chords for acoustic guitar and electric guitar, ukulele, drums are parodies/interpretations of the original songs. You may use it for private study, scholarship, research or language learning purposes only