Home » R » Ramones »

Ramones - Pinhead Bass

Artists:  A B C D E F G H I J K L M N O P Q R S T U V W X Y Z # 

Pinhead Bass

(ver. 4) Click to play this song!
Ramones
[Intro]

G|------------------|----------------|
D|------------------|----------------|
A|------------------|7---9-----------|  (x4)
E|7h9-9-9-9-9-9-9-9-|--------7---9---|
    1 & 2 & 3 & 4 &  1 & 2 & 3 & 4 &

[Verse]

G|------------------|----------------|
D|------------------|----------------|
A|------------------|--------5---7---|  (x4)
E|5h7-7-7-7-7-7-7-7-|5---7-----------|
    1 & 2 & 3 & 4 &  1 & 2 & 3 & 4 &

G|----------------|----------------|
D|----------------|----------------|
A|7-7-7-7-7-7-7-7-|7-7-7-7-7-7-7-7-|
E|----------------|----------------|
  1 & 2 & 3 & 4 &  1 & 2 & 3 & 4 &

[Intro]

G|------------------|----------------|
D|------------------|----------------|
A|------------------|7---9-----------|  (x4)
E|7h9-9-9-9-9-9-9-9-|--------7---9---|
    1 & 2 & 3 & 4 &  1 & 2 & 3 & 4 &

[Verse]

G|------------------|----------------|
D|------------------|----------------|
A|------------------|--------5---7---|  (x4)
E|5h7-7-7-7-7-7-7-7-|5---7-----------|
    1 & 2 & 3 & 4 &  1 & 2 & 3 & 4 &

G|----------------|----------------|
D|----------------|----------------|
A|7-7-7-7-7-7-7-7-|7-7-7-7-7-7-7-7-|
E|----------------|----------------|
  1 & 2 & 3 & 4 &  1 & 2 & 3 & 4 &

[Intro]

G|------------------|----------------|
D|------------------|----------------|
A|------------------|7---9-----------|  (x4)
E|7h9-9-9-9-9-9-9-9-|--------7---9---|
    1 & 2 & 3 & 4 &  1 & 2 & 3 & 4 &

[Bridge]

G|----------------|----------------|
D|----------------|----------------|
A|--------------5-|--------------9-|  (x2)
E|7-7-7-7-7-7-7---|5-5-5-5-5-5-5---|
  1 & 2 & 3 & 4 &  1 & 2 & 3 & 4 &

"D-U-M-B, everyone's accusing me!"

G|------------------|----------------|
D|------------------|----------------|
A|------------------|--------5---7---|
E|5h7-7-7-7-7-7-7-7-|5---7-----------|
    1 & 2 & 3 & 4 &  1 & 2 & 3 & 4 &

"D-U-M-B, everyone's accusing me!"

G|------------------|----------------|
D|------------------|----------------|
A|------------------|--------5---7---|
E|5h7-7-7-7-7-7-7-7-|5---7-----------|
    1 & 2 & 3 & 4 &  1 & 2 & 3 & 4 &

G|----------------|----------------|
D|----------------|----------------|
A|7-7-7-7-7-7-7-7-|7-7-7-7-7-7-7-7-|
E|----------------|----------------|
  1 & 2 & 3 & 4 &  1 & 2 & 3 & 4 &

[Intro]

G|------------------|----------------|
D|------------------|----------------|
A|------------------|7---9-----------|  (x4)
E|7h9-9-9-9-9-9-9-9-|--------7---9---|
    1 & 2 & 3 & 4 &  1 & 2 & 3 & 4 &

[Verse]

G|------------------|----------------|
D|------------------|----------------|
A|------------------|--------5---7---|  (x4)
E|5h7-7-7-7-7-7-7-7-|5---7-----------|
    1 & 2 & 3 & 4 &  1 & 2 & 3 & 4 &

G|----------------|----------------|
D|----------------|----------------|
A|7-7-7-7-7-7-7-7-|7-7-7-7-7-7-7-7-|
E|----------------|----------------|
  1 & 2 & 3 & 4 &  1 & 2 & 3 & 4 &

[Intro]

G|------------------|----------------|
D|------------------|----------------|
A|------------------|7---9-----------|  (x4)
E|7h9-9-9-9-9-9-9-9-|--------7---9---|
    1 & 2 & 3 & 4 &  1 & 2 & 3 & 4 &

[Outro]

G|----------------|----------------|
D|----------------|----------------|
A|--------------5-|--------------9-|  (x16)
E|7-7-7-7-7-7-7---|5-5-5-5-5-5-5---|
  1 & 2 & 3 & 4 &  1 & 2 & 3 & 4 &            
Submit corrections

↑ Back to top | Tablatures and chords for acoustic guitar and electric guitar, ukulele, drums are parodies/interpretations of the original songs. You may use it for private study, scholarship, research or language learning purposes only