Home » R » Ramones »

Ramones - Judy Is A Punk Bass

Artists:  A B C D E F G H I J K L M N O P Q R S T U V W X Y Z # 

Judy Is A Punk Bass

(ver. 2) Click to play this song!
Ramones
Judy is a Punk
By The Ramones

Fig 1 
Intro
“Jackie is a punk, Judy…”

|---------------------------------|
|---------------------------------|
|-6-6-6-6-6-6-6-6-6-6-6-6-6-6-6-6-|
|---------------------------------| x2

Fig 2 
“...Ice Capades, Oh Yeah...”

|---------------------------------|
|-8-8-8-8-8-8-8-8-8-8-8-8-8-8-8-8-|
|---------------------------------|
|---------------------------------|

Fig 3
“...Oh, I don’t know why...”

|---------------------------------|
|-6-6-6-6-6-6-6-6-8-8-8-8-8-8-8-8-|
|---------------------------------|
|---------------------------------| x2

Fig 4 
“...Perhaps they’ll die...”

|---------------------------------|
|-----------------8-8-8-8-8-8-8-8-|
|-6-6-6-6-6-6-6-6-----------------|
|---------------------------------|

“Second Verse...” (use Fig 2)
Then use:
Fig 1
Fig 2
Fig 3
Fig 4
Solo (use Fig 4)
“Third Verse…” (use Fig 2)
Then use:
Fig 1
Fig 2
Fig 3
Fig 4
            
Submit corrections

↑ Back to top | Tablatures and chords for acoustic guitar and electric guitar, ukulele, drums are parodies/interpretations of the original songs. You may use it for private study, scholarship, research or language learning purposes only