» » »

Ramones - Glad To See You Go Tabs

Artists:  A B C D E F G H I J K L M N O P Q R S T U V W X Y Z # 

Glad To See You Go Tabs

(ver. 1) Click to play this song!
Ramones
 Rating:
4/5 (4 votes)


 Glad To See You Go lessons Tabs too difficult? Try these video lessons and learn fast
 
                Ramones - Glad to See You Go



Intro/Verse:
                              4x
e------------------------------- ---------------------------------------------
b------------------------------- ---------------------------------------------
g---7--7--7-7-7----------------- ---------------------------------------------
d---7--7--7-7-7---7--7--7-7-7--- --5-5-5-5-5-5-5-5-5-5--7-7-7-7-7-7-7-7-7-7---
a---5--5--5-5-5---7--7--7-7-7--- --5-5-5-5-5-5-5-5-5-5--7-7-7-7-7-7-7-7-7-7---
e-----------------5--5--5-5-5--- --3-3-3-3-3-3-3-3-3-3--5-5-5-5-5-5-5-5-5-5---

                              2x
e------------------------------- ---------------------------------------------
b------------------------------- ---------------------------------------------
g---7--7--7-7-7----------------- ---------------------------------------------
d---7--7--7-7-7---7--7--7-7-7--- --5-5-5-5-5-5-5-5-5-5--7-7-7-7-7-7-7-7-7-7---
a---5--5--5-5-5---7--7--7-7-7--- --5-5-5-5-5-5-5-5-5-5--7-7-7-7-7-7-7-7-7-7---
e-----------------5--5--5-5-5--- --3-3-3-3-3-3-3-3-3-3--5-5-5-5-5-5-5-5-5-5---


Chorus:
                             3x                                                         3x
e----------------------------- ---------------------------- ------------------------
b----------------------------- ---------------------------- ------------------------
g--7-7-7-7-7-7---------------- ---------------------------- --7-7-7-7-7-7-----------
d--7-7-7-7-7-7--5-5-5-5-5-5--- --7-7-7-7-7-7-7-7-7-7-7-7--- --7-7-7-7-7-7---5-5-5-5-5
a--5-5-5-5-5-5--5-5-5-5-5-5--- --7-7-7-7-7-7-7-7-7-7-7-7--- --5-5-5-5-5-5---5-5-5-5-5
e---------------3-3-3-3-3-3--- --5-5-5-5-5-5-5-5-5-5-5-5--- ----------------3-3-3-3-3


2nd Verse:
                                           2x
e----------------------------------------- ------------------------------------(12x)
b------------------------------------(4x)-- -------------------------------------^-
g-5-5-5-5-5-5-5-5--7-7-7-7-7-7-7-7-----7--- ---5-5-5-5-5-5-5-5-------------------4-
d-5-5-5-5-5-5-5-5--7-7-7-7-7-7-7-7---7-7--- ---5-5-5-5-5-5-5-5--5-5-5-5-5-5-5-5--4-
a-3-3-3-3-3-3-3-3--5-5-5-5-5-5-5-5---7-5--- ---3-3-3-3-3-3-3-3--5-5-5-5-5-5-5-5--2-
e------------------------------------5----- --------------------3-3-3-3-3-3-3-3----


2nd Chorus:
                             3x                                  3x
e------------------------------ ----- -----------------------------
b------------------------------ (12x) -----------------------------
g---7-7-7-7-7-7---------------- --^-- --7-7-7-7-7-7----------------
d---7-7-7-7-7-7--5-5-5-5-5-5--- --7-- --7-7-7-7-7-7--5-5-5-5-5-5---
a---5-5-5-5-5-5--5-5-5-5-5-5--- --7-- --5-5-5-5-5-5--5-5-5-5-5-5---
e----------------3-3-3-3-3-3--- --5-- ---------------3-3-3-3-3-3---


Outro Chorus:
                            12x
e------------------------------
b------------------------------
g---7-7-7-7-7-7----------------
d---7-7-7-7-7-7--5-5-5-5-5-5---
a---5-5-5-5-5-5--5-5-5-5-5-5---
e----------------3-3-3-3-3-3---


Song Structure:

1. Intro
2. Chorus (2x)
3. 2nd Verse
4. Verse
5. 2nd Chorus
6. Outro Chorus
            
Submit corrections



        Glad To See You Go lessons Hard to play? Try these video lessons and learn fast Glad To See You Go lessons
        
↑ Back to top | Tablatures and chords for acoustic guitar and electric guitar, ukulele, drums are parodies/interpretations of the original songs. You may use it for private study, scholarship, research or language learning purposes only