Home » R » Ramones »

Ramones - Cretin Hop Bass

Artists:  A B C D E F G H I J K L M N O P Q R S T U V W X Y Z # 

Cretin Hop Bass

(ver. 2) Click to play this song!
Ramones
Cretin Hop
By the Ramones

Intro

|---------------------------------|
|---------------------------------|
|---------------------------------|
|-0-0-5-5-0-0-0-0-0-0-0-0-0-0-0-0-|

Verse

|---------------------------------|
|---------------------------------|
|-----------------7-7-7-7-7-7-7-7-|
|-5-5-5-5-5-5-5-5-----------------|

“Cretin…” part

|---------------------------------|
|---------------------------------|
|-----------------7-7-7-7-7-7-7-7-|
|-7-7-7-7-7-7-7-7-----------------|
            
Submit corrections

↑ Back to top | Tablatures and chords for acoustic guitar and electric guitar, ukulele, drums are parodies/interpretations of the original songs. You may use it for private study, scholarship, research or language learning purposes only