Home » R » Ramones »

Ramones - Commando Tabs

Artists:  A B C D E F G H I J K L M N O P Q R S T U V W X Y Z # 

Commando Tabs

(ver. 3) Click to play this song!
Ramones
Intro/the Intro is played twice
e|----------------------------------
B|------------|--------|------------
G|------------|-9-9-9-9|-7-7-7-7----
D|-11-11-11-11|-9-9-9-9|-7-7-7-7----
A|-11-11-11-11|-7-7-7-7|-7-7-7-7----
E|-9--9--9--9-|--------|-5-5-5-5------
e|----------------------------------
B|----------------------------------
G|----------------------------------
D|-9-9-9-9--------------------------
A|-9-9-9-9--------------------------
E|-7-7-7-7---------------------------
Verse/
e|------------------|---------------
B|------------------|---------------
G|------------------|---------------
D|-9--11-11-11-11-11|-9--11-11-11-11
A|-9--11-11-11-11-11|-9--11-11-11-11
E|-7--9--9--9--9--9-|-7--9--9--9--9--
e|----------------|---------------
B|----------------|---------------
G|----------------|---------------
D|-9--11-11-11-11-|-9--11-11-11-11
A|-9--11-11-11-11-|-9--11-11-11-11
E|-7--9--9--9--9--|-7--9--9--9--9----
e|---------------|------------------
B|---------------|------------------
G|-9--11-11-11-11|-9--11-11-11-11---
D|-9--11-11-11-11|-9--11-11-11-11---
A|-7--9--9--9--9-|-7--9--9--9--9---
E|-----------------------------------

Chorus/repeat four times
e|---------------------------------
B|------------|--------|------------
G|------------|-9-9-9-9|-7-7-7-7----
D|-11-11-11-11|-9-9-9-9|-7-7-7-7----
A|-11-11-11-11|-7-7-7-7|-7-7-7-7----
E|-9--9--9--9-|--------|-5-5-5-5-----
e|----------------------------------
B|----------------------------------
G|----------------------------------
D|-9-9-9-9--------------------------
A|-9-9-9-9--------------------------
E|-7-7-7-7---------------------------
Then play this 
e|---------------|------------------
B|---------------|------------------
G|-9--11-11-11-11|-9--11-11-11-11---
D|-9--11-11-11-11|-9--11-11-11-11---
A|-7--9--9--9--9-|-7--9--9--9--9---
E|-----------------------------------
Then the verse and Chorus again
 End song with
G|-9----
D|-9----
A|-7----
************************************            
Submit corrections

↑ Back to top | Tablatures and chords for acoustic guitar and electric guitar, ukulele, drums are parodies/interpretations of the original songs. You may use it for private study, scholarship, research or language learning purposes only