» » »

Ralph Jay - Tadhana Tabs

Artists:  A B C D E F G H I J K L M N O P Q R S T U V W X Y Z # 

Tadhana Tabs

(ver. 1) Click to play this song!
Ralph Jay
 Rating:
3.5/5 (26 votes)

 Tadhana  lessons Tabs too difficult? Try these video lessons and learn fast
 
                Intro
 T T T TT T T T T T T T T
|----5-p0---5-p0---5-p0---5-p0---5-p0---5-p0-----|
|---------5------5-------------5------5----------|
|------------------------------------------------|
|------------------------------------------------|
|------------------------------------------------|
|--3---------5----------7------------------------|

 G A Bm
 T T T TT T T T T T T T T
|----5-p0---5-p0---5-p0---5-p0---5-p0---5-p0-----|
|---------5------5-------------5------5----------|
|------------------------------------------------|
|------------------------------------------------|
|------------------------------------------------|
|--3---------5----------7------------------------|

 G A Bm
|------------0---------0-------------------------|
|--------0-3-------0-3-------0-3-----------------|
|------0---------2---------2-----2---2-----------|
|----0---------2---------0---------0---0---------|
|------------0---------2---------2---------------|
|--3---------------------------------------------|

 G A Bm
|------------0---------0---------0---------------|
|--------0-3-------0-3-------0-3-----------------|
|------0---------2---------2---------------------|
|----0---------2---------0-----------------------|
|------------0---------2---------2---------------|
|--3---------------------------------------------|

 G A BmVerse I
 Sa hindi inaasahang..
|------------------------------------------------|
|-----------------------------3-3p2--------------|
|------0h2-2---0--------------2-----2------------|
|----0-----------s4-2-2---2h4---------4----------|
|------------0----------2-----2------------------|
|--3---------------------------------------------|

 G A Bm
|------------------------------------------------|
|---------------------------------------5b-------|
|------0h2-2-2---0----------0h2------------------|
|----0-------------s4-2---2-----s4-2p0-----------|
|--------------0--------2---------------2--------|
|--3---------------------------------------------|

 G A Bm
|------------------------------------------------|
|-----------------0h2-2---3-----0----------------|
|--0--0h2-2-2-2h4-----------2-2------------------|
|--0---------------------------------------------|
|-----------0-----------2------------------------|
|--3---------------------------------------------|

 G A Bm

|-------------------------------------*7-----------|
|-------------------------------------*7-----------|
|------0-----0---0---------0----------*7-----------|
|--2s4-----4---4-----4-0-2-----4-------------------|
|--------------------------------------------------|
|--------0---------2---------3---------------------|

 Em F#m G
 Di pa ba sapat ang...
|------------------------------------------------------------------| (Di ko na sinama sa
|------------------------------------------------------------------| tab yung mga strum
|------0h2-2---0-----------0h2-0-----------------------------------| at tap kasi medyo
|----0-----------s4-2------------s4-2------------------------------| komlipkado, sabayan
|------------0--------2----2---------------------------------------| nyo na lang yung video
|--3--------------------------------------------- para makuha nyo--|

 G A Bm
|------------------------------------------------|
|-------------------------------------5b---------|
|--------0----------0----------------------------|
|----0-0-----s4-0-2-----s4-0-0-0-2-2-------------|
|----------0----------2---------------2----------|
|--3---------------------------------------------|


 G A Bm

|------------------------------------------------|
|-----------------0h2-2---3-----0----------------|
|--0--0h2-2-2-2h4-----------2-2------------------|
|--0---------------------------------------------|
|-----------0-----------2------------------------|
|--3---------------------------------------------|

G A Bm

|------------------------------------------------|
|------------------------3-----------------------|
|------0-----0---0---2------0--------------------|
|--2s4-----4---4------------0--------------------|
|------------------------------------------------|
|--------0---------2--------3--------------------|

 Em F#m G
Chorus
 Ba't di papatulan...
|------------0--0h2-----------0--0h2-------------|
|----------3----------------3--------------------|
|--2-2-2h4-2----0---2-2-2h4-2--------------------|
|--0-0-0---0--------0-0-0---0--------------------|
|------------------------------2-2---------------|
|--3----------3-3---3----------------------------|

 G G Bm
|------------0--0h2-----------0--0h2-------------|
|----------3----------------3--------------------|
|--2-2-2h4-2----0---2-2-2h4-2--------------------|
|--0-0-0---0--------0-0-0---0--------------------|
|--2---------------------------2-2---------------|
|-------------3-3---3----------------------------|

 Bm G Bm
|-----5---3-2-0--------------0--0h2--------------|
|---3---3---3----3---------3--------3s2p0--------|
|-----------0----0-2-2-2h4-2---------------------|
|------------------0-0-0---0---------------------|
|--2--------------------------2-2---2------------|
|--------------3-3-3-----------------------------|

 Bm G Bm
|--------------------3---------------------------|
|--3-2-3-2-3------0--3---------------------------|
|--0---0----------0--0---------------------------|
|------0------2-2-2--0---------------------------|
|--------------------2---------------------------|
|--0--------2--------3---------------------------|

 Em F#m GRepeat Intro
(Hindi ko na ginawan ng tab yung freestyle adlib sa video ko, medyo
mahirap kasing tyempuhan yun.hehe.. Kapain nyo na lang or pedeng
gamitin nyo na lang ulit yung intro sa part na to.)
Verse II
 Saan nga ba patungo...

|------------------------------------------------|
|--------------------------------0-0h2-3-3-------|
|------0h2-2-2-0-------------0h2-----------------|
|----0-----------s4-2---2h4----------------------|
|------------0--------2------2-------------------|
|--3---------------------------------------------|

 G A Bm
|------------------------------------------------|
|-------------------------------------5b---------|
|----2-0h2-2-2-0----------0h2--------------------|
|----------------s4-2---2-----s4-2-0-------------|
|------------0--------2---------------2----------|
|--3---------------------------------------------|

 G A Bm
|------------------------------------------------|
|-----------------0h2-2---3-----0----------------|
|--0--0h2-2-2-2h4-----------2-2------------------|
|--0---------------------------------------------|
|-----------0-----------2------------------------|
|--3---------------------------------------------|

 G A Bm

|------------------------------------------------|
|------------------------------3-3---------------|
|------0-----0---0-------0-0-0---0---------------|
|--2s4-----4---4-----4-4-----0---0---------------|
|------------------------------------------------|
|--------0---------2---------3-------------------|

 Em F#m G
Chorus
Ba't di pa sabihin...
|------------0--0h2-----------0--0h2-------------|
|----------3----------------3--------------------|
|--2-2-2h4-2----0---2-2-2h4-2--------------------|
|--0-0-0---0--------0-0-0---0--------------------|
|------------------------------2-2---------------|
|--3----------3-3---3----------------------------|

 G G Bm
|------------0--0h2-----------0--0h2-------------|
|----------3----------------3--------------------|
|--2-2-2h4-2----0---2-2-2h4-2--------------------|
|--0-0-0---0--------0-0-0---0--------------------|
|--2---------------------------2-2---------------|
|-------------3-3---3----------------------------|

 Bm G Bm
|-----5---3-2-0--------------0--0h2--------------|
|---3---3---3----3---------3--------3s2p0--------|
|-----------0----0-2-2-2h4-2---------------------|
|------------------0-0-0---0---------------------|
|--2--------------------------2-2---2------------|
|--------------3-3-3-----------------------------|

 Bm G Bm
|------------------------------------------------|
|------------------------3-3---------------------|
|--0---0---0-----0---0---------------------------|
|----4---4-----4---4-----------------------------|
|------------------------------------------------|
|--0---------2---------3-------------------------|

 Em F#m G
Outro
|-----0------------------------------------------|
|--3----3---2---0---0-2-3------------------------|
|--0------2---2---2-----2------------------------| X4
|--0---------------------------------------------|
|--2----0-------2-------2------------------------|
|--3---------------------------------------------|

 G A Bm
|----5-----5------5-----5-----5-------5----------|
|------5-5----5-5-5-5-----5-5-----5-5-5-5--------|
|--0---0----------2-------0-----------0----------| X2
|--0---0----------2-------4-----------4----------|
|--X--------0---------2---------2----------------|
|--3---------------------------------------------|

 G A Bm
|--3----0----1s2-2--1s2-2---3--------------------|
|--3----2----2s3-3--2s3-3---3--------------------|
|--0----2----1s2-2--1s2-2---0--------------------|
|--0----2----3s4-4--3s4-4---0--------------------|
|--2----0----1s2-2--1s2-2---2--------------------|
|--3------------------------3--------------------|

 G A Bm G            
Submit corrections


        Tadhana  lessons Hard to play? Try these video lessons and learn fast Tadhana  lessons
        
↑ Back to top | Tablatures and chords for acoustic guitar and electric guitar, ukulele, drums are parodies/interpretations of the original songs. You may use it for private study, scholarship, research or language learning purposes only