» » »

Ralph Jay - See You Again Tabs

Artists:  A B C D E F G H I J K L M N O P Q R S T U V W X Y Z # 

See You Again Tabs

(ver. 1) Click to play this song!
Ralph Jay
 Rating:
3.8/5 (25 votes)

 See You Again  lessons Tabs too difficult? Try these video lessons and learn fast
 
                e|----------------------------------------------------------|
b|---------------------0---------------------------0--------|
G|------2---0------0-2---2-0-2------2---0------0-2---2-0-2--|
D|----------------------------------------------------------|
A|------------------------------3~--------------------------|
E|--0~----------3~--------------------------3~--------------|
 * * * * * * * * * *
e|--------------------------------------------------|
b|---------------------0----------------------------|
G|------2---0------0-2---2-0-2------2---0-----------|
D|--------------------------------------------------|
A|------------------------------3~------------------|
E|--0~----------3~--------------------------3~------|
Chorus: Em-G-C-G
 It's been a long day...
 *
e|------------------0~---------------------------------------------------------------------|
b|----0-3-3s5~---3~-----------------0~----0-3-3s5-5s7-7s5-5s3-0----------------------------|
G|--0-----0~-----0~----0-1s2—1s2-p0-0~--0-----0---0---0---0---0-1s2-2-p0--1s2-1s2-p0--0----|
D|------------------------------------------------------------------------------------0----|
A|-----------------------3~-----------------------------------------------3~---------------|
E|--------0~-----3~-----------------3~--------0~--------------3~----------------------3~---|
 We've come a long way...
 *
e|----------------------0~----------------------------3-3h5-5s7-5-3--0-3-4s5-4s5-s3--3~----|
b|----0-3-3s5-5s7s5--3~-----------------0~----0-3-3s5--------------------------------------|
G|--0-----0~---------0~----0-1s2—1s2-p0-0~--0-----0-------------0--------------------0~----|
D|-----------------------------------------------------------------------------------------|
A|---------------------------3~------------------------------------------3~----------------|
E|--------0~---------3~-----------------3~--------0~------------3~-------------------3~----|

 When I see you again...
T
e|--0-3-4s5-4s5-s3--3~--|
b|----------------------|
G|------------------0~--|
D|----------------------|
A|------3~--------------|
E|------------------3~--|

Verse I (Rap part): Em-G-C-G
 B T B T B T B T B T B T B T B T*
e|---------------------------------------------------------------------------------------------|
b|--0-----0-----0-----0-3-0----------------0---------------------0--0-----------------------0--|
G|--0--2--0--2--0--2--0-----2--0-----0--2-----0--0---0-----0--2-----0--0-----0-----0--2--0--0--|
D|--------2-----------0-----------2--2--------0----2----2--2--------0-----2-----2--0-----0--0--|
A|-----------------------------3---------------------------------------------3-----------------|
E|--0-----------3---------------------------3--------0------------3-----------------------3----|
 B T B T B T B T B T B T B T B T*
e|---------------------------------------------------------------------------------------------|
b|--0-----0-----0-----0-3-0----------------0---------------------0--0-----------------------0--|
G|--0--2--0--2--0--2--0-----2--0-----0--2-----0--0---0-----0--2-----0--0-----0-----0--2--0--0--|
D|--------2-----------0-----------2--2--------0----2----2--2--------0-----2-----2--0-----0--0--|
A|-----------------------------3---------------------------------------------3-----------------|
E|--0-----------3---------------------------3--------0------------3-----------------------3----|
 B T B T B T B T B T B T B T B
e|------------------------------------------------------------------------------------|
b|--------0---------------0---------------------0--------------------0----------------|
G|--0-----0--0---0--0--0------0--0--0---0----------0--0--0---0-----------0--0--0--0---|
D|--2--2--2--0---0------------2--2---------2p0-----2--2---------2p0------2--2-----0---|
A|-------------------------3------------------------------------------3---------------|
E|--0--------3-----------------------3-----------0--------3-----------------------3---|

Chorus: Em-G-C-G
 *
e|------------------0~---------------------------------------------------------------------|
b|----0-3-3s5~---3~-----------------0~----0-3-3s5-5s7-7s5-5s3-0----------------------------|
G|--0-----0~-----0~----0-1s2—1s2-p0-0~--0-----0---0---0---0---0-1s2-2-p0--1s2-1s2-p0--0----|
D|------------------------------------------------------------------------------------0----|
A|-----------------------3~-----------------------------------------------3~---------------|
E|--------0~-----3~-----------------3~--------0~--------------3~----------------------3~---|
 *
e|----------------------0~----------------------------3-3h5-5s7-5-3--0-3-4s5-4s5-s3--3~----|
b|----0-3-3s5-5s7s5--3~-----------------0~----0-3-3s5--------------------------------------|
G|--0-----0~---------0~----0-1s2—1s2-p0-0~--0-----0-------------0--------------------0~----|
D|-----------------------------------------------------------------------------------------|
A|---------------------------3~------------------------------------------3~----------------|
E|--------0~---------3~-----------------3~--------0~------------3~-------------------3~----|

e|--0-3-4s5-4s5-s3--3~---------------------------------------------------------------------|
b|-----------------------------------------------------------------------------------------|
G|------------------0~---------------------------------------------------------------------|
D|-----------------------------------------------------------------------------------------|
A|------3~---------------------------------------------------------------------------------|
E|------------------3~---------------------------------------------------------------------|
Outro: Em-G-C-G

 T B T B T B T B T B T B T B T B
e|--3--2--0---------3--2--0--0--0------------3-5-7-5-7--7-7-7-10-7-----------3--|
b|--0-----0--0--3---3-----------3--3--0--3-5---------0------0------10-8---8--3--|
G|--0--------0--0---0-----0-----0-----0--0-----------0------0---------0-0-0--0--|
D|-----------2---------------------------0--------------------------------0-----|
A|------------------------3----------------------7------10----------------------|
E|--------0------3--------------------3-------------------------------8------3--|Verse II (Rap part): Em-G-C-G
 T*
e|--------------------------------------------------------------------------------------------|
b|--0-----0-----0-----0-3-0----------------0---------------------0-------------------------0--|
G|-----2-----2-----2--------2--0-----0--2------0-----0-----0--2-------0-----0-----0--2--0--0--|
D|--------------------------------2---------------2-----2----------------2-----2-----------0--|
A|-----------------------------3--------------------------------------------3-----------------|
E|--0-----------3---------------------------3--------0------------3----------------------3----|

B T B T B T B T B T B T B T B T*
e|---------------------------------------------------------------------------------------------|
b|--0-----0-----0-----0-3-0----------------0---------------------0--0-----------------------0--|
G|--0--2--0--2--0--2--0-----2--0-----0--2-----0--0---0-----0--2-----0--0-----0-----0--2--0--0--|
D|--------2-----------0-----------2--2--------0----2----2--2--------0-----2-----2--0-----0--0--|
A|-----------------------------3---------------------------------------------3-----------------|
E|--0-----------3---------------------------3--------0------------3-----------------------3----|

 B T B T B T B T B T B T B T B
e|------------------------------------------------------------------------------------|
b|--------0---------------0---------------------0--------------------0----------------|
G|--0-----0--0---0--0--0------0--0--0---0----------0--0--0---0-----------0--0--0--0---|
D|--2--2--2--0---0------------2--2---------2p0-----2--2---------2p0------2--2-----0---|
A|-------------------------3------------------------------------------3---------------|
E|--0--------3-----------------------3-----------0--------3-----------------------3---|

Bridge: C-G-D-- 2x Am-G-
 G-F#/G-Em-D-C—
 So let the light guide...
T T T T
e|------------------------------------------------------------------------5----3~--|
b|----0-3-3s5---3-----------3-3-3----3h5-5-5-5---3-3-0-3-3s5-3------------5-8--3~--|
G|--0-----------0--0--1s2---2-2-2----------------------------2--2-2-2-2s5---5--0~--|
D|------------------------0-----0----------------------0-----0-----------------0~--|
A|--------1s3----------------------3~---------------------------------0--------2~--|
E|--------------3~-----------------------------3-------------------------------3~--|

Will always lead you...
e|--7--------5--------3--------2--------0---------2---------3h5--5---|
b|-----0--------0--------0--------0----------------------------------|
G|--------0--------0--------0--------0-------0---------0-------------|
D|--5--------4--------2--------0-----------0---0-----0---0-----------|
A|--------------------------------------3~--------3~--------3~-------|
E|-------------------------------------------------------------------|

Chorus: Em-G-C-G
 *
e|------------------0~---------------------------------------------------------------------|
b|----0-3-3s5~---3~-----------------0~----0-3-3s5-5s7-7s5-5s3-0----------------------------|
G|--0-----0~-----0~----0-1s2—1s2-p0-0~--0-----0---0---0---0---0-1s2-2-p0--1s2-1s2-p0--0----|
D|------------------------------------------------------------------------------------0----|
A|-----------------------3~-----------------------------------------------3~---------------|
E|--------0~-----3~-----------------3~--------0~--------------3~----------------------3~---|
 *
e|----------------------0~----------------------------3-3h5-5s7-5-3--0-3-4s5-4s5-s3--3~----|
b|----0-3-3s5-5s7s5--3~-----------------0~----0-3-3s5--------------------------------------|
G|--0-----0~---------0~----0-1s2—1s2-p0-0~--0-----0-------------0--------------------0~----|
D|-----------------------------------------------------------------------------------------|
A|---------------------------3~------------------------------------------3~----------------|
E|--------0~---------3~-----------------3~--------0~------------3~-------------------3~----|

e|--0-3-4s5-4s5-s3--3~--|
b|----------------------|
G|------------------0~--|
D|----------------------|
A|------3~--------------|
E|------------------3~--|

Outro: Em-G-C-G
 T B T B T B T B T B T B T B T B
e|--3--2--0---------3--2--0--0--0------------3-5-7-5-7--7-7-7-10-7-----------3----|
b|--0-----0--0--3---3-----------3--3--0--3-5---------0------0------10-8---8--3----|
G|--0--------0--0---0-----0-----0-----0--0-----------0------0---------0-0-0--0----| (2X)
D|-----------2---------------------------0--------------------------------0-------|
A|------------------------3----------------------7------10------------------------|
E|--------0------3--------------------3-------------------------------8------3----|            
Submit corrections


        See You Again  lessons Hard to play? Try these video lessons and learn fast See You Again  lessons
        
↑ Back to top | Tablatures and chords for acoustic guitar and electric guitar, ukulele, drums are parodies/interpretations of the original songs. You may use it for private study, scholarship, research or language learning purposes only