» » »

Ralph Jay - Flashlight Tabs

Artists:  A B C D E F G H I J K L M N O P Q R S T U V W X Y Z # 

Flashlight Tabs

(ver. 1) Click to play this song!
Ralph Jay
 Rating:
1.3/5 (3 votes)

 Flashlight  lessons Tabs too difficult? Try these video lessons and learn fast
 
                 
Intro 
e|--------------0---------------0---0h2-------3---2---0---2---0------ 
b|--3---2---3-------3---2---3-------------3-----------------------3-- 
G|----0---0---0---0---2---2---2---2-----2---2---2---2---0---0---0---- 
D|----------------------------------0---------0---------------------- 
A|------------------0------------------------------------------------ 
E|--3-------------------------------------------------3-------------- 
 G A D G 
 
Verse 
 When tomorrow comes... 
|------------------------------------------------------- 
|--------3-3-2-------3-3-2-------3-3-2-------3-2-3------ 
|----2-2---------2-2---------2-2---------2-2------------ 
|------------------------------------------------------- 
|--------------------------0-----------0---------------- 
|--3-----------3---------------------------------------- 
 G A 
 
|------0-2h0-------0-2h0-------0-2-h0------------------- 
|----3-------3---3-------3---3--------3----------------- 
|-------------------------------------------0----------- 
|--0-----------0--------------------------0---0--------- 
|------------------------------------------------------- 
|--------------------------3------------3--------------- 
 D G 
 
|------------------------------------------------------- 
|--------3-3-2-------3-3-2-------3-3-2-------3-2-3------ 
|----2-2---------2-2---------2-2---------2-2------------ 
|------------------------------------------------------- 
|--------------------------0-----------0---------------- 
|--3-----------3---------------------------------------- 
 G A 
 
|------0-2h0-------0-2h0-------0-2h5-2---p0------------- 
|----3-------3---3-------3---3--------------3----------- 
|------------------------------------------------------- 
|--0-----------0---------------------------------------- 
|------------------------------------------------------- 
|--------------------------3-----------3---------------- 
 D G  
 
Chorus 
 
|--------0h2-2-2-2p0-----0h2-p0-----0-0-0-----3---2----- 
|------3-------------3---------------------------------- 
|----2-----------------2--------------------2---2------- 
|--0-------------0----------------2-------2------------- 
|-------------------------------0-------0--------------- 
|------------------------------------------------------- 
 D A 
 
|--------0h2-2-2-2p0-----0h2-p0-------0h2---0h2-2h5-2p0- 
|------2-------------3--------------3-----3------------- 
|----3-----------------4----------0--------------------- 
|------------------------------------------------------- 
|--2-------------2-------------------------------------- 
|-------------------------------3---------------3------- 
 Bm G 
 
|------0h2-2-2-2-2h3-2h3---0---0-0-------3-2-0---------- 
|--3-----------------------------------2-------3-------- 
|----2-----------------------2--------2----------------- 
|--0-----------0---------------------------------------- 
|--------------------------0-------0-------------------- 
|------------------------------------------------------- 
 D A 
 
|------0h2-2-2-2p0-----0h2-p0-------0h2---0h2-2h5-2p0--- 
|----3-------------3--------------3-----3--------------- 
|--4-----------------2----------0----------------------- 
|------------------------------------------------------- 
|--2-----------2---------------------------------------- 
|-----------------------------3------------------------- 
 Bm G 
 
Outro 
 
|----------------3---2---------------3---2---------------3-2--0----- 
|--3---3-------3-------------3-----3-----------3-------3--------3-2- 
|----2---2---2-----2-------2-----2-----2-----4---4---4-------------- 
|--0-------0-------------2------------------------------------------ 
|----------------------0-------0-----------2-------2---------------- 
|------------------------------------------------------------3------ 
 D A Bm G 
 
Verse 
 
|------------------------------------------------------- 
|--------3-3-2-------3-3-2-------3-3-2-------3-2-3------ 
|----2-2---------2-2---------2-2---------2-2------------ 
|------------------------------------------------------- 
|--------------------------0-----------0---------------- 
|--3-----------3---------------------------------------- 
 G A 
 
  T 
|------0-2h0-------0-2h0-------0-2h5-2---p0------------- 
|----3-------3---3-------3---3--------------3----------- 
|-------------------------------------------0----------- 
|--0-----------0----------------------------0----------- 
|------------------------------------------------------- 
|--------------------------3-----------3---------------- 
 D G 
 
Chorus 
 
 T T T T 
|--------0h2-2-2-2p0-----0h2-p0-----0-0-0-----3---2----- 
|------3-3-----------3---3----------2---------2--------- 
|----2---2-------------2-2----------2-------2-2-2------- 
|--0-------------0----------------2-------2------------- 
|-------------------------------0-------0--------------- 
|------------------------------------------------------- 
 D A 
 
 T T T T 
|--------0h2-2-2-2p0-----0h2-p0-------0h2---0h2-2h5-2p0- 
|------2-2-----------3---2----------3-----3-----3------- 
|----3---3-------------4-3--------0-0-----0-----0------- 
|-----------------------------------0------------------- 
|--2-------------2-------------------------------------- 
|-------------------------------3---------3------------- 
 Bm G 
 
 T T T T 
|------0h2-2-2-2-2h3-2h3---0---0-0-------3-2-0---------- 
|--3---3---------3-------------2-------2-2-----3-------- 
|----2-2---------2-----------2-2------2--2-------------- 
|--0-----------0---------------------------------------- 
|--------------------------0-------0-------------------- 
|------------------------------------------------------- 
 D A 
 
 T T T T 
|------0h2-2-2-2p0-----0h2-p0-------0h2---0h2-2h5-2p0--- 
|----3-3-----------3---3----------3-----3-----3--------- 
|--4---4-------------2-4--------0-0-----0-----0--------- 
|---------------------------------0--------------------- 
|--2-----------2---------------------------------------- 
|-----------------------------3---------3--------------- 
 Bm G 
 
Bridge 
 
 T T T T T T T 
|----2-2-2-2-0h2-2-2-2-2-0h2-2-2-2-2-0h2-2--x~---------- 
|--3-3---3-------3---3-------3---3-------3--3~---------- 
|----2---2-------2---2-------4---4-------0--0~---------- 
|--0---0------------------------------------0~---------- 
|--------------0---0-------2---2------------x~---------- 
|--------------------------------------3----3~---------- 
 D A Bm G  
 
Chorus 
 
 T T T T 
|--------0h2-2-2-2p0-----0h2-p0-----0-0-0-----3---2----- 
|---3~---3-----------3---3----------2---------2--------- 
|---2~---2-------------2-2----------2-------2-2-2------- 
|---0~-----------0----------------2-------2------------- 
|-------------------------------0-------0--------------- 
|------------------------------------------------------- 
 D A 
 
 T T T T 
|--------0h2-2-2-2p0-----0h2-p0-------0h2---0h2-2h5-2p0- 
|------2-2-----------3---2----------3-----3-----3------- 
|----3---3-------------4-3--------0-0-----0-----0------- 
|-----------------------------------0------------------- 
|--2-------------2-------------------------------------- 
|-------------------------------3---------3------------- 
 Bm G 
 
 T T T T 
|------0h2-2-2-2-2h3-2h3---0---0-0-------3-2-0---------- 
|--3---3---------3-------------2-------2-2-----3-------- 
|----2-2---------2-----------2-2------2--2-------------- 
|--0-----------0---------------------------------------- 
|--------------------------0-------0-------------------- 
|------------------------------------------------------- 
 D A 
 
 T T T T 
|------0h2-2-2-2p0-----0h2-p0-------0h2---0h2-2h5-2p0--- 
|----3-3-----------3---3----------3-----3-----3--------- 
|--4---4-------------2-4--------0-0-----0-----0--------- 
|---------------------------------0--------------------- 
|--2-----------2---------------------------------------- 
|-----------------------------3---------3--------------- 
 Bm G 
 
Outro 
 
 T T T T T T 
|----------------3---2---------------3-2--------------3-2---x----0h2~- 
|--3---3---3---3-3---------2---3---3-3-------3---3--3-3-----3~---3~--- 
|----2-2-2-2-2---2-2-----2-2-2-2-2---2-----4-4-4---4--------0~---2~--- 
|--0-------0---------------2-----------------0--------------0~---0~--- 
|----------------------0-------0---------2-------2----------x--------- 
|--------------------------------------------------------3--3~-------- 
 D A Bm G 
            
Submit corrections


        Flashlight  lessons Hard to play? Try these video lessons and learn fast Flashlight  lessons
        
↑ Back to top | Tablatures and chords for acoustic guitar and electric guitar, ukulele, drums are parodies/interpretations of the original songs. You may use it for private study, scholarship, research or language learning purposes only