Home » R » Rainbow »

Rainbow - Miss Mistreated Tabs

Artists:  A B C D E F G H I J K L M N O P Q R S T U V W X Y Z # 

Miss Mistreated Tabs

(ver. 1) Click to play this song!
Rainbow
  Q=126
  N.C.
 4/4
  Gtr I (El. Gtr. w/ dist.)
  Wx10
|---------||
|---------||
|---------||
|---------||
|---------||
|---------||


                 1st & 3rd Verses
            A5    B5
  Gtr I
  H    Q  E E     W          +W           +W
|-------------||-----------|------------|--------|
|-------------||o----------|------------|--------|
|-------------||-----------|------------|--------|
|-----------7-||--9--------|-(9)--------|-(9)----|
|-----------7-||o-9--------|-(9)--------|-(9)----|
|-----------5-||--7--------|-(7)--------|-(7)----|


  E E E E Q  Q    W          +W           +W
|---------------|----------|------------|--------|
|---------------|----------|------------|--------|
|-----7---7--9--|----------|------------|--------|
|---9-7-9-7--9--|-9--------|-(9)--------|-(9)----|
|---9---9-------|-9--------|-(9)--------|-(9)----|
|---------------|-7--------|-(7)--------|-(7)----|


                  2nd & 4th Verses
                   B5
  E E E E Q  Q     W          +W           +W           E  E E E Q  Q
|---------------||----------|------------|------------|------------------|
|---------------||----------|------------|------------|------------------|
|-----7---7-----||----------|------------|------------|------7---7--9----|
|---9-7-9-7--7--||-9--------|-(9)--------|-(9)--------|---/9-7-9-7--9----|
|---9---9----7--||-9--------|-(9)--------|-(9)--------|---/9---9---------|
|---------------||-7--------|-(7)--------|-(7)--------|------------------|


  W          +W           +W           E  E E E Q  Q
|----------|------------|------------|-----------------||
|----------|------------|------------|-----------------||
|----------|------------|------------|------7---7------||
|-9--------|-(9)--------|-(9)--------|---/9-7-9-7--7---||
|-9--------|-(9)--------|-(9)--------|---/9---9----7---||
|-7--------|-(7)--------|-(7)--------|-----------------||


 Bridge
  $
  E5      D5   E5      D5   E5      D5   N.C.
  H.      Q    H.      Q    H.      Q    Q  Q  Q  Q
|------------|------------|------------|--------------|
|------------|------------|------------|--------------|
|------------|------------|------------|--------------|
|-9-------7--|-9-------7--|-9-------7--|--------------|
|-7-------5--|-7-------5--|-7-------5--|--------------|
|------------|------------|------------|-0--2--3--5---|


    B
  E  E E E Q  Q    E  E E E Q  Q    E  E E E Q  Q    E  E E E Q  Q
|----------------|----------------|----------------|------------------||
|----------------|----------------|----------------|-----------------o||
|------7---7--9--|------7---7-----|------7---7--9--|------7---7-------||
|---/9-7-9-7--9--|---/9-7-9-7--7--|---/9-7-9-7--9--|---/9-7-9-7--7----||
|---/9---9-------|---/9---9----7--|---/9---9-------|---/9---9----7---o||
|----------------|----------------|----------------|------------------||


 Chorus
  N.C.                    B
             ~
  W          W          E E E E Q  Q     E E E E Q  Q
|----------|----------|----------------|-----------------|
|----------|----------|----------------|-----------------|
|----------|----------|-----7---7------|-----7---7-------|
|----------|----------|---9-7-9-7--9\--|---9-7-9-7--9\---|
|-5--------|-4--------|---9---9----7\--|---9---9----7\---|
|----------|----------|----------------|-----------------|


                                         To Coda
  N.C.                           G5
  H    +E  E S E.   W            W          +W
|-----------------|------------|----------|---------||
|-----------------|------------|----------|---------||
|-----------------|------------|----------|---------||
|-----------------|------------|-5--------|-(5)-----||
|-5----(5)-4---5--|-5b7--------|-5--------|-(5)-----||
|-----------------|------------|-3--------|-(3)-----||


 Interlude
    B
  E  E E E Q   Q    E  E E E Q  Q    E  E E E Q   Q    E  E E E Q  Q
|-----------------|----------------|-----------------|-----------------|
|-----------------|----------------|-----------------|-----------------|
|------7---7--/9--|------7---7-----|------7---7--/9--|------7---7------|
|---/9-7-9-7--/9--|---/9-7-9-7--7--|---/9-7-9-7--/9--|---/9-7-9-7--7---|
|---/9---9--------|---/9---9----7--|---/9---9--------|---/9---9----7---|
|-----------------|----------------|-----------------|-----------------|


  E. Q     E     +S  S S S S E   +S  E. S S E  H
|------------------------------|--------------------|
|------------------------------|--------------------|
|----9b11--9pb11r(9)p7---7h9-7-|-(7)----7-----------|
|----------------------9-------|-----9----9-9\------|
|------------------------------|--------------------|
|------------------------------|--------------------|


   Q      H       E   E    Q      E     E     +Q    Q
|-------------------/14-|------------------------------||
|-----------------------|-17b19--17b19-17b19-(17)\-----||
|-14b16--14b16----------|------------------------------||
|-----------------------|------------------------------||
|-----------------------|------------------------------||
|-----------------------|------------------------------||


 Guitar Solo
  N.C.
      |----6----|             |---5---|
  E E S S S S S S +T  T T T E S S S S S   S S S S S S S S S S S S Q
|---------------------------------------|------------------------------|
|---------------------------------------|------------------------------|
|-0-4-4p2p0-4p2p0-(0)-4p2p0-4-4p2p0-4-4p|=2-4-4p2-4-4p2-4-4-4-4-4-4b6--|
|---------------------------------------|------------------------------|
|---------------------------------------|------------------------------|
|---------------------------------------|------------------------------|


          |-3-|   |-3-|                 |-3-|
  E E e E S S S E S S S E       +E  +E  S S S E     +E   S S E    S S
|-----------------------------|---------------------------------------|
|-----7-8-7h8p7---7-7---------|-------------7-------------------------|
|---9-----------9-----9-9b11==|=(9)r(9)-9-9---9b11==(9)r-7-9-9b11-9-9-|
|-----------------------------|---------------------------------------|
|-----------------------------|---------------------------------------|
|-----------------------------|---------------------------------------|


                                            |---5----| |---5---| |---5---|
  S S S S S S S S S S S S S S S S   S S S S S S S S  S S S S S S S S S S S
|---------------------------------|----------------------------------------|
|---------------------------------|----------------------------------------|
|-7h9p7---7-9---------------------|-----------7--------7-------------------|
|-------9-----9-9p7-9-9p7-9-9p7-9-|-9p7-9-9p7---9-9h11---9-9p7---7h9-9p7---|
|---------------------------------|----------------------------9---------9-|
|---------------------------------|----------------------------------------|


               |-3--|  |----5-----|
  S E S S e  S E E  E  S S  S  S  S
|-----------------------------------|
|-----------------------------------|
|-----------------------------------|
|-7-7-------------------------------|
|-----9-7---10-7h9-------9-10-12p10-|
|---------8--------10-12------------|


  S  S  S  S S  S S  S S  S  S  S  S  S  S  S
|----------------------------------------------|
|----------------------------------------------|
|----------------------------------------------|
|----------------------------------------------|
|-9-10----10-9----9-10-9-10----10-10----10-12s=|
|------12------12-----------12-------12--------|


   ~~~
                                     |-3-|         |-3-|
   Q.   E S S  E S E S       +E  +E  S S S  E  E E S S S E
|--------------------------|---------------------9-7h9p7s6-|
|--------------------------|-------------------------------|
|---------7------7-9-9b11==|=(9)r(9)-7h9p7----/7-----------|
|-------9---9-11-----------|---------------11--------------|
|-14-----------------------|-------------------------------|
|--------------------------|-------------------------------|


  |-3-| |-3--| |-3--| |--3--|
  E E E E E  E E E  E E  E  E
|---7-9-7-9-10-7-9-10-8-10-12-|
|-----------------------------|
|-----------------------------|
|-----------------------------|
|-----------------------------|
|-----------------------------|


  |--3--|
  E  E  E  S  S  S  S  E  S  S  E  E
|-8-10-12-13-10-12-14-14-12-14-15-17-|
|------------------------------------|
|------------------------------------|
|------------------------------------|
|------------------------------------|
|------------------------------------|


   ~~~~~~                                       ~~~~~
                               |---3----|
   H         +E    Q      E    Q     Q  Q      +H
|-17b19=====(17)r-17b19--17-|-17b19-17-----------------|
|---------------------------|----------17b19==(17)r----|
|---------------------------|--------------------------|
|---------------------------|--------------------------|
|---------------------------|--------------------------|
|---------------------------|--------------------------|


                          D.S. al Coda &
    B                                     N.C.
  E E E E Q  Q     E  E E E a E E E E     W          E H..
|----------------|---------------------||----------|---x/-----||
|----------------|---------------------||----------|----------||
|-----7---7------|------------------7--||----------|----------||
|---9-7-9-7--9\--|--------------7-9----||----------|----------||
|---9---9----9\--|------5-7-7s9--------||----------|----------||
|----------------|---/7----------------||----------|----------||


 Outro
  N.C.
          ~~~~~
                                     |--3---|     |--3--|
   Q      H.          E  E  Q       +E   E  E     E  E  E
|-17b19--17b19------|---17---------------0--------------------|
|-------------------|------17b19===(17)r---17b19-17-15-17b19==|
|-------------------|-----------------------------------------|
|-------------------|-----------------------------------------|
|-------------------|-----------------------------------------|
|-------------------|-----------------------------------------|


   +E.  +T   T  H.         +H        Q   Q
|-----------------------|----------/17--17--|
|-(17)r(17)p15----------|-------------------|
|--------------16-------|-(16)\-------------|
|-----------------------|-------------------|
|-----------------------|-------------------|
|-----------------------|-------------------|


                   ~~~~~                    ~~
  E   E  E  E  Q   Q       E   E  E  E  Q   Q
|------------------------|---------------------|
|---/12-15-12-15--15b17--|---/12-15-12-15------|
|------------------------|-----------------14--|
|------------------------|---------------------|
|------------------------|---------------------|
|------------------------|---------------------|


                   ~~~~~                    ~~~~~
  E   E  E  E  Q   Q       E   E  E  E  Q   Q
|------------------------|-------------------------|
|---/12-15-12-15--15b17--|---/12-15-12-15----------|
|------------------------|-----------------14b16---|
|------------------------|-------------------------|
|------------------------|-------------------------|
|------------------------|-------------------------|


                   ~~~~~                    ~~~~~
  E   E  E  E  Q   Q       E   E  E  E  Q   Q
|------------------------|------------------------|
|---/12-15-12-15--15b17--|---/12-15-12-15---------|
|------------------------|-----------------14b16--|
|------------------------|------------------------|
|------------------------|------------------------|
|------------------------|------------------------|


  E   E  E  E  Q   Q         +H      e  Q   E
|-------------------------|--------------------|
|---/12-15-12-15--15b17===|=(15)----15-15--15--|
|-------------------------|--------------------|
|-------------------------|--------------------|
|-------------------------|--------------------|
|-------------------------|--------------------|


   E  E  +E   E  E      +E   S  S  E
|------------------------------------|
|-15-15r(15)-12-14pb16r(14)-12h15p12-|
|------------------------------------|
|------------------------------------|
|------------------------------------|
|------------------------------------|


    ~~~~                                                             ~~~
   +E  S S  S S S S  E      +E    S      +S  S  S   E S  S  S   S E +Q.    E
|------9-7-10p7-9p7-10b12==(10)r-10pb12r(10)-9h10-|---9h10p(9)h10-7-(7)---17b19==|
|-(12)--------------------------------------------|------------------------------|
|-------------------------------------------------|------------------------------|
|-------------------------------------------------|------------------------------|
|-------------------------------------------------|------------------------------|
|-------------------------------------------------|------------------------------|


            |--3--|
   +E    E  S  S  S  E  S  E.  +S   S  S  S    +E   S  S  E S  S E S S S S S S
|-(17)r-17-15h17p15s14-12-14--(14)-12h14p12-|-(12)-10h12p10-9h10-9-7h9-7-5h7-5-|
|-------------------------------------------|----------------------------------|
|-------------------------------------------|----------------------------------|
|-------------------------------------------|----------------------------------|
|-------------------------------------------|----------------------------------|
|-------------------------------------------|----------------------------------|


                                         \1         \1____|
                                         ~~~~
  +E  S S S E S S E S E E   S S S S E E +H        E Q.    Q  Q
|-(5)-3h5-3-2-------------|---------------------|---------------*|
|-------------5-5-5-3-2-5-|-3p2h3p2-0-----------|---0-----0--0--*|
|-------------------------|-----------4-(4)\----|---------------*|
|-------------------------|---------------------|---------------*|
|-------------------------|---------------------|---------------*|
|-------------------------|---------------------|---------------*|
            
Submit corrections

↑ Back to top | Tablatures and chords for acoustic guitar and electric guitar, ukulele, drums are parodies/interpretations of the original songs. You may use it for private study, scholarship, research or language learning purposes only