Home » R » Rahat Fateh Ali Khan »

Rahat Fateh Ali Khan - Afreen Afreen Chords

Artists:  A B C D E F G H I J K L M N O P Q R S T U V W X Y Z # 

Afreen Afreen Chords

(ver. 2) Click to play this song!
Rahat Fateh Ali Khan
[Intro]
e|------x-------x------x-------x-------x------x-----7-x-7----x--|
B|----5-x-----5-x----5-x-------x-----5-x----5-x-7s9---x------x--|
G|-4s6--x-6s7---x-7s6--x-4-4h6-x-4s6---x-6s7--x-------x------x--|
D|------x-------x------x-------x-------x------x-------x------x--|
A|-0----x-0-----x------x-0-----x-0-----x-0----x-------x------x--|
E|------x-------x-0----x-------x-------x------x-0-----x-0----x--|
   A      Asus4   E      E       A       Asus4  Asus2   E

[Interlude 1]
e|----0--------------0-2-4-----------------------------------------------12~--12--12--12--12-|
B|2-3--3-2-0-2~--2-3-------5p3-2---------------------10------------------------12--12--12--12|
G|--------------------------------4p2h4------------11--12s14s12~-10p9h10---------------------|
D|---------------------------------------2h4-7-9-12------------------------------------------|
A|-------0----------------------------2--------------------------------0---------------------|
E|---------------------2----------------------------0--------------------------0-------------|
          A           F#m             Bm            E                  A Asus4 E

[Interlude 2]
e|-----------------------------------------------------|
B|-10-11--8--9--7--9--5~-----14-15-12-14-10-12--9~-----|
G|-----------------------------------------------------|
D|-----------------------------------------------------|
A|-0------------------0------0------------------0------|
E|--------------0-------------------------0------------|
   A            E     A      A            E     A
e|-----------------------------------------------------|
B|-10-11--8--9--7--9--5~-----14-15-12-14-10-12--9~-----|
G|-9--9---9--9--9--9---------14-14-14-14-11-11--9------|
D|-----------------------------------------------------|
A|-0------------------0------0------------------0------|
E|--------------0-------------------------0------------|
   F#m   C#m    D     E      F#m    C#m   D     E

[Intro]
A   Asus4  E     A
A   Asus4  Asus2 E
(x2)

A   A      A     A
Oohhhhh Oohhhhhhhhh
A   F#m    Bm    E
Oohhhhh Oohhhhhhhhh

[Verse]
     E               A
Aisa dekha nahi khoobsurat koi
     E               A
Jism jaise Ajanta ki murat koi
     A               D       A
Jism jaise nigahon pe jadoo koi
     A               D
Jism nagma koi jism khushboo koi
     F#m     D       E     A
Jism jaise mehakti hui chandni
     F#m     D       E     A
Jism jaise machalti hui ragini
     C#m     D       E        A
Jism jaise ke khilta hua ik chaman
     C#m      D        E     A
Jism jaise ke suraj ki pehli kiran
     F#m              Bm
Jism tarsha hua dilkasho dilnashin
     D             E
Sandli sandli marmari marmari

[Chorus]
       A        Bm     D       A
Husane jaana ki tareef mumkin nahi
       A        Bm     D       A
Husane jaana ki tareef mumkin nahi
   C#m           Bm
Afreen afreen afreen afreen
       A                E
Tu bhi dekhe agar toh kahe humnashin
   C#m    D      F#m    E
Afreen afreen afreen Afreen
       A
Husane jaana ki tareef mumkin nahi
       A        F#m    Bm     D     E
Husane jaana ki tareef mumkin nahi

[Interlude 1]
A   F#m   Bm   E
A   Asus2 E

[Momina]
A                    F#m
Jaane kaise baandhe tu ne akhiyon ke dor
D                  E
Man mera khincha chala aaya teri or
A                   C#m
Mere chehre ke subh zulfon ki shaam
F#m                     D
Mera sab kuchh hai piya ab se tere naam
Bm          D
Nazron ne teri chhuwa
Bm          D
To hai yih jaadu hua
Bm               E
Hone lagi hoon main haseen

A . F#m              E . A
Aafreen Aafreen..... Aafireen (X2)
F#m . C#m            D . E
Aafreen Aafreen..... Aafireen (x2)

[Interlude 2]
A      E    A   (x2)
F#m  C#m  D  E  (x2)

[Verse]
       E               A
Chehra ik phool ki tarah shadaab hai
       E               A
Chehra uska hai ya koi mehtaab hai
       F#m                 E     A
Chehra jaise ghazal chehra jaane ghazal
       F#m                 D     A
Chehra jaise kalli chehra jaise kanwal
       Bm                  D     A
Chehra jaise tasavur bhi tasveer bhi
       Bm                  D     A
Chehra ik khaab bhi chehra tabeer bhi
       C#m   D     E     A
Chehra koi aliflailvi dastaan
       C#m      D           E      A
Chehra ik pal yakeen chehra ik pal gumah
       F#m               Bm
Chehra jaisa ke chehra kahin bhi nahi..
   E        D       Bm       E
Mahrooh mahrooh mehjabin mehjabin

[Chorus]
       A        Bm     D       A
Husane jaana ki tareef mumkin nahi
       A        Bm     D       A
Husane jaana ki tareef mumkin nahi
   C#m           Bm
Afreen afreen afreen afreen
       A                E
Tu bhi dekhe agar toh kahe humnashin
   C#m    D      F#m    E
Afreen afreen afreen Afreen
       A        F#m    Bm     D     E
Husane jaana ki tareef mumkin nahi            
Submit corrections

↑ Back to top | Tablatures and chords for acoustic guitar and electric guitar, ukulele, drums are parodies/interpretations of the original songs. You may use it for private study, scholarship, research or language learning purposes only