» » »

Radiohead - Paranoid Android Bass

Artists:  A B C D E F G H I J K L M N O P Q R S T U V W X Y Z # 

Paranoid Android Bass

(ver. 2) Click to play this song!
Radiohead
 Rating:
4/5 (4 votes)
                +++++++++++++++++++++++++++++++
| Radiohead- Paranoid Android |
+++++++++++++++++++++++++++++++


"When I am king you will be first against the wall..."

Tuning: EADG


0:46
1.
G|-------|
D|---7h8-|
A|-------|
E|-------|

Chorus
"Whats that?"
2.
G|---------------------------------------------------------------------|
D|-----------------------7h8~-----------------7h8--------------8p7-----|
A|-10~-10-10~-10~-10-10~------8~-8-8~-8~-8-8~-----7~-7-7~-7~-7-----7h8-|
E|---------------------------------------------------------------------|

"Whats that?"
3.
G|--------------------------------------------------------------------------------------|
D|-----------------------7h8~-----------------7h8--------------8p7----------------------|
A|-10~-10-10~-10~-10-10~------8~-8-8~-8~-8-8~-----7~-7-7~-7~-7-----7h8-7~-7-7~-7~-7-5-4-|
E|--------------------------------------------------------------------------------------|

Verse
"When I am king..."
4.
G|--------------------------------------------------------------------------------------|
D|--------------------------------------------------------------------------------------|
A|-3~-3-3~-1-1-3-3---------0-0-1-1---------0-0-1-1/7~----------------0-0-1-1-7~-----5-4-|
E|-----------------1~-1-1~---------3~-3-3~-------------------3~-3-3~--------------------|

"With your opinion..."
5.
G|---------------------------------------------------------------|
D|-----------------------------------------------------------7h8-|
A|-3~-3-3~-1-1-3-3---------0-0-1-1---------0-0-1-1/7~------------|
E|-----------------1~-1-1~---------3~-3-3~-----------------------|

Chorus
"Whats that?"
6.
G|---------------------------------------------------------------------|
D|-----------------------7h8~-----------------7h8--------------8p7-----|
A|-10~-10-10~-10~-10-10~------8~-8-8~-8~-8-8~-----7~-7-7~-7~-7-----7h8-|
E|---------------------------------------------------------------------|

"Whats that?"
7.
G|-------------------------------------------------------------------------------------|
D|-----------------------7h8~-----------------7h8--------------7h8---------------------|
A|-10~-10-10~-10~-10-10~------8~-8-8~-8~-8-8~-----7~-7-7~-7~-7-----7h8-7~-7-7~-7~-7-5/-|
E|-------------------------------------------------------------------------------------|

Bridge
8.
G|-------------------------------------------------------------------------9h10-----|
D|------------------------------------------------------------------------------8h9-|
A|-0-00-3-0-------3-5-0-00-3-0-------3-5-0-00-3-0-------3-5-0-00-3-0----------------|
E|----------4-4-4--------------4-4-4--------------4-4-4--------------4-4-4----------|

9.
G|--------------------8h10-10-------------------10987------------------------8~-10~-|
D|-10-1010--------------------8h10-1010---------------8h9h10-1010-------------------|
A|---------8h10-11-11-------------------8h10-11-------------------8h10-11-11--------|
E|----------------------------------------------------------------------------------|

10.
G|-----------------------------|
D|-10-1010---------10-9-8~---6-|
A|---------8h10-11-------------|
E|-----------------------------|

"Ambition makes you look pretty ugly..."
11.
G|-----------------------------------------------------------------------------|
D|--------------------------------------------------------------------------8h-|
A|-0x-----------------000030-------3-5-0x--------------3-5-000030-------3-5----|
E|---------------------------4-4-4--------------------------------4-4-4--------|

12.
G|--------------------8h10-10-------------------10987------------------------8~-10~-|
D|-10-1010--------------------8h10-1010---------------8h9h10-1010-------------------|
A|---------8h10-11-11-------------------8h10-11-------------------8h10-11-11--------|
E|----------------------------------------------------------------------------------|

13.
G|------------------------------|
D|-10-1010---------10-9-8~----6-|
A|---------8h10-11--------------|
E|------------------------------|

"You dont remember..."
14.
G|---------------------------------------------------------------------------|
D|-------------------------------------------------------------------------8-|
A|-0x-----------------0-00-35-6~-6-565---0x---------------0-00-35-6~-6-565---|
E|-------------------------------------3-------------------------------------|

15.
G|--------------------8~-10~-----------------------8~--------------------8~-10~-|
D|-10-1010-------------------10-1010------------8~----10-1010-------------------|
A|---------8h10-11-11----------------8h10-11-11---------------8h10-11-11--------|
E|------------------------------------------------------------------------------|

13.
G|------------------------------|
D|-10-1010---------10-9-8~----6-|
A|---------8h10-11--------------|
E|------------------------------|

3:04
15.
G|---------------------------------------------------------------------------|
D|-------------------------------------------------------------------------8-|
A|-0x-----------------0-00-35-6~-6-565---0x---------------0-00-35-6~-6-565---|
E|-------------------------------------3-------------------------------------|

16.
G|--------------------8~-10~-----------------------8~-----------------------8~-|
D|-10-1010-------------------10-1010------------8~----10-1010------------8~----|
A|---------8h10-11-11----------------8h10-11-11---------------8h10-11-11-------|
E|-----------------------------------------------------------------------------|

17.
G|-------------------------------------|
D|-10-1010---------10-9-8-7------------|
A|---------8h10-11---------------------|
E|---------------------------1~--------|

Second Part
3:33
18.
G|---------------------------------------------------------------------------------|
D|---------------------------------------------------------------------------------|
A|-3~---2~---1~---0~---5~---0~---5~---3~---1~----------------------------0~---0~---|
E|----------------------------------------------1~---3~---1~---0~---0~-------------|

Outro
5:36
19.
G|---------------------------------------------------------------------------|
D|-------------------------------------------------------------------------8-|
A|--------------------0-00-35/6~-6-565---0x---------------0-00-35-6~-6-565---|
E|-------------------------------------3-------------------------------------|

20.
G|-----------------------8~---------------------8~-10~---------------------8~-10~-|
D|-10-1010------------8~-----10-1010--------------------10-1010-------------------|
A|---------8h10-11-11----------------8h10-11-11-----------------8h10-11-11--------|
E|--------------------------------------------------------------------------------|

21.
G|--------------------------|
D|-10-1010---------10-9-8-7-|
A|---------8h10-11----------|
E|--------------------------|

22.
G|---------------------------------------------------------------------------|
D|-------------------------------------------------------------------------8-|
A|-0x-----------------0-00-35/6~-6-565---0x---------------0-00-35-6~-6-565---|
E|-------------------------------------3-------------------------------------|

23.
G|-----------------------8~---------------------10~------------------------8~-10~-|
D|-10-1010------------8~-----10-1010----------------8~--10-1010-------------------|
A|---------8h10-11-11----------------8h10-11-11-----------------8h10-11-11--------|
E|--------------------------------------------------------------------------------|

24.
G|---------------------------|
D|-10-1010---------10-9-8-7x-|
A|---------8h10-11-----------|
E|---------------------------|


Please rate thanks!!


Lyrics:



Please could you stop the noise, I'm trying to get some rest
What's that...? (I may be paranoid, but not an android)

When I am king, you will be first against the wall
With your opinion which is of no consequence at all

Ambition makes you look pretty ugly
Kicking and squealing gucci little piggy
You don't remember

Why don't you remember my name?
Off with his head, man
Why don't you remember my name?
I guess he does....

Rain down, rain down
Come on rain down on me

That's it, sir
You're leaving
The crackle of pigskin
The dust and the screaming
The yuppies networking
The panic, the vomit
The panic, the vomit
God loves his children, God loves his children, yeah!



+++++++++++
| Raileff |
+++++++++++
            
Submit corrections

↑ Back to top | Tablatures and chords for acoustic guitar and electric guitar, ukulele, drums are parodies/interpretations of the original songs. You may use it for private study, scholarship, research or language learning purposes only