» » »

Radiohead - I Might Be Wrong Tabs

Artists:  A B C D E F G H I J K L M N O P Q R S T U V W X Y Z # 

I Might Be Wrong Tabs

(ver. 2) Click to play this song!
Radiohead
 Rating:
4/5 (4 votes)
    I Might Be Wrong lessons Tabs too difficult? Try these video lessons and learn fast
                Here is the right way to play this song (my timing is probably off so check the song)
Tuning: DADGBE 
By the way this is one of Radiohead’s most awesome guitar songs!

INTRO 
D----------------(12)----------------------
A---------(12)-----------------------------
D--(12)------------------------------------

VERSE 
D--------0--------------0---------0-----
A---------------------------------------
D---0-------3//5--3--------3------------

“I could have sworn I saw a light…”
D------------0------------------0-----------0
A--------------------------------------------
D---3///-8-----8--8--3///-8-------88---8----

“Lets go down a waterfall…”
D-----0---0---0---0----0----0---0--0--0---0
A------------------------------------------
D---8---8---7---7---10---10---8-7-8--8-7-8-

SOLO (one way to play it)
E--1-----------1--------0--------1-------------1-------0--
B-----------------------------------------------------------
G-----------2------------------------------2----------------
D--0----------------3------------0------------------3------
A-----------------------------------------------------------
D-----------------------------------------------------------

E----------------------------------
B----3--------3--------------------
G----------------------------------
D----------------------------------
A---1--------0--------------------
D--------------------------3//55--

SOLO (another way to play it)
E------------------------------------------------------------------------
B------------------------------------------------------------------------
G----10--------------10------------9-------10--------------10----------9-
D------------------------------------------------------------------------
A--------------12-------------------------------------12-----------------
D-----0---------------------10--------------0---------------------10-----

E---------------------------------
B---------------------------------
G--7------------7----------------
D-------------------------3//5---
A---------------------------------
D--8------------7---------3//5----
            
Submit corrections

↑ Back to top | Tablatures and chords for acoustic guitar and electric guitar, ukulele, drums are parodies/interpretations of the original songs. You may use it for private study, scholarship, research or language learning purposes only