» » »

Radiohead - How To Disappear Completely Bass

Artists:  A B C D E F G H I J K L M N O P Q R S T U V W X Y Z # 

How To Disappear Completely Bass

(ver. 3) Click to play this song!
Radiohead
 Rating:
4/5 (4 votes)
    How To Disappear Completely lessons Tabs too difficult? Try these video lessons and learn fast
                
These are the componenents of the song.

This is exactly how Colin plays the main line:

G|-----------------------------------------------------------|
D|---------14-11---------------------------------------------|
A|---12-14-------12-14---------------------------------------|
E|14-------------------12------------------------------------|

==========================================================================

Lower octave version, that he plays about halfway through:

G|-----------------------------------------------------------|
D|----------------2------------------------------------------|
A|4-0-2------0-2---------------------------------------------|
E|-------0-2-------------------------------------------------|

Then in a couple parts of the song, like after Thom sings "Yeah,
it's gone" and at the end of the song, you just play the bit on
the left there, and the part on the right gets thrown in a couple
times too.

G-----------------------------|-------------------------------|
D-----------------------------|---------------7-6-------------|
A---7-9-9-9-9-9-7-9-9-9-9-9---|---7-7-7-7-7-7-----7---(etc.)--|
E-----------------------------|-------------------------------|
            
Submit corrections

↑ Back to top | Tablatures and chords for acoustic guitar and electric guitar, ukulele, drums are parodies/interpretations of the original songs. You may use it for private study, scholarship, research or language learning purposes only