» » »

Radiohead - Harry Patch In Memory Of Tabs

Artists:  A B C D E F G H I J K L M N O P Q R S T U V W X Y Z # 

Harry Patch In Memory Of Tabs

(ver. 1) Click to play this song!
Radiohead
 Rating:
4/5 (4 votes)


 Harry Patch In Memory Of lessons Tabs too difficult? Try these video lessons and learn fast
 
                -----------------------------------------------------------------------------
                  HARRY PATCH (In Memory Of) - Radiohead
-----------------------------------------------------------------------------

This is a version for solo guitar of Radiohead's tribute to
tom_is_champ, but now I've tried to adapt the whole string
arrangement by Johnny Greenwood, including the orchestral interlude.

MAIN OSTINATO - USED IN INTRO AND VERSE

(D)                (G6)
e|0---0---0---0---|0---0---0---0---|
B|-3---3---3---3--|-3---3---3---3--|
G|--2---2---2---2-|--4---4---4---4-|
D|---4---4---4---4|---5---5---5---5|
A|----------------|----------------|
E|----------------|----------------|

(D)      (G6)              (D)     (G6)
I am the only one that got through
    (D)     (G6)                (D)   (G6)
The others died where ever they fell


CHORDS USED IN SECOND AND THIRD PART

X X 0 2 3 2    D
2 X 0 2 2 0    Dmaj9/F# (or F#mb6, a matter of perspective)
3 2 0 0 0 3    G
X 0 2 2 2 0    A
x 0 2 0 2 0    A7
X X 0 2 3 3    Dsus4
x 0 2 0 0 0    A7/9


           D    Dmaj9/F#      G               (D)
It was an ambush        They came up from all sides.

A            A7             Dsus4 D   Dmaj9/F#
   Give your leaders each a gun   and let them
G
fight it out themselves

INTERLUDE


Gm/Bb   F/A     Bbmaj7  Am7       C               G

e|--------------------------------0---------------3---------------|
B|----------------3-3---3-1-1---1-1---------------0---------------|
G|0-0---0---------2-2---2-0-0---0-3---------------0---------------|
D|--------3-3---3-3-3---3-2-2---2-2---------------0---------------|
A|1-1---1-0-0---0-1-1---1-0-0---0-3---------------2---------------|
E|------------------------------------------------3---------------|

Play 3x

VERSE - MAIN OSTINATO

(D)       (G6)                      (D)
I have seen devils coming up from the ground
(D)       (G6)           (D)
I have seen hell upon this earth

LIKE SECOND PART

    D            Dmaj9/F#     G         A7/9
The next will be chemical but they will never learn.

USE MAIN OSTINATO AS OUTRO
            
Submit corrections



        Harry Patch In Memory Of lessons Hard to play? Try these video lessons and learn fast Harry Patch In Memory Of lessons
        
↑ Back to top | Tablatures and chords for acoustic guitar and electric guitar, ukulele, drums are parodies/interpretations of the original songs. You may use it for private study, scholarship, research or language learning purposes only