» » »

Radiohead - Black Star Tabs

Artists:  A B C D E F G H I J K L M N O P Q R S T U V W X Y Z # 

Black Star Tabs

(ver. 3) Click to play this song!
Radiohead
 Rating:
4.2/5 (30 votes)

 Black Star lessons Tabs too difficult? Try these video lessons and learn fast
 
                [Intro]

    Q=80
    4/4                       1.,2.,3.
    Gtr I                     2/4
     S E.  E S E S E E   S S   S S S S S S S S
e||o-2-3---3-3-2-3-3-3---3-3-|-----------------o||
B||o-3-3---3-3-3-3-3-3---3-3-|-----3-----3---3-o||
G||o-------------------------|---0-----0-------o||
D||o-------------------------|-----------------o||
A||o-------------------------|-3-----2-----0---o||
E||o-------------------------|-----------------o||
 ||                          
 || Gtr II                   
 ||  E   E E S E.  E E   E     E   S E   S E    
e||o-------------------------|-----------------o||
B||o-3---3-3-3---------------|-----------------o||
G||o-2---2-2-2-0---0-0---0---|-0---0-0---0-0---o||
D||o-0---0-0-0-0---0-0---0---|-0---0-0---0-2---o||
A||o-----------2---2-2---2---|-3---3-2---2-0---o||
E||o-------------------------|-----------------o||
 ||                          
 || Gtr III                  
 ||  S E.  E.  E E.  S S S S   E   S E   S E    
e||o-2-3---3---2-3---3-3-3-3-|-----------------o||
B||o-3-3---3---3-3---3-3-3-3-|-3---3-3---3-3---o||
G||o-2-2---2---0-0---0-0-0-0-|-0---0-0---0-0---o||
D||o-0-0---0---0-0---0-0-0-0-|-0---0-0---0-2---o||
A||o-----------2-2---2-2-2-2-|-3---3-2---2-0---o||
E||o-------------------------|-----------------o||

  4.
  Gtr I           5/8
   S S S S S S E    H  E
e|---------------|-------||
B|-----3-----3---|-------||
G|---0-----0-----|-------||
D|---------------|-------||
A|-3-----2-----0-|-(0)---||
E|---------------|-------||
 |               
 |Gtr II         
 | E   S E   S E    H  E 
e|---------------|-------||
B|---------------|-------||
G|-0---0-0---0-0-|-(0)---||
D|-0---0-0---0-2-|-(2)---||
A|-3---3-2---2-0-|-(0)---||
E|---------------|-------||
 |               
 |Gtr III        
 | E   S E   S E    H  E 
e|---------------|-------||
B|-3---3-3---3-3-|-(3)---||
G|-0---0-0---0-0-|-(0)---||
D|-0---0-0---0-2-|-(2)---||
A|-3---3-2---2-0-|-(0)---||
E|---------------|-------||

[Verse 1]

  4/4
  Gtr I
   E E E E E E E E   E E E E E E E E
e|-----------------|-----------------|
B|-----3-------3---|-----3-------3---|
G|-----0-------0---|-----0-------0---|
D|-----0-------0---|-----0-------0---|
A|---------3-3---3-|-2-2---2---------|
E|-3-3---3---------|---------2-2---0-|
 |                 
 |Gtr II           
 | E E E E E E E E   E E E E E E E E 
e|-----------------|-----------------|
B|-3-3-3-3-3-3-3-3-|-3-3-3-3-3-3-3-3-|
G|-0-0-0-0-0-0-0-0-|-0-0-0-0-0-0-0-0-|
D|-0-0-0-0-0-0-0-0-|-0-0-0-0-0-0-0-0-|
A|---------3-3-3-3-|-2-2-2-2---------|
E|-3-3-3-3---------|---------2-2-2-2-|

  Gtr I
   E Q E  H     W
e|-----0-(0)-|-(0)-|
B|-----0-(0)-|-(0)-|
G|-0-0-0-(0)-|-(0)-|
D|-4-4-4-(4)-|-(4)-|
A|-2-2-2-(2)-|-(2)-|
E|-----------|-----|
 |           
 |Gtr II     
 | Q.  E  H     W  
e|-----2-(2)-|-(2)-|
B|-----0-(0)-|-(0)-|
G|-----0-(0)-|-(0)-|
D|-2---------|-----|
A|-2---------|-----|
E|-0---------|-----|

  Gtr I
   E E E E E E E E   E E E E E E E E
e|-----------------|-----------------|
B|-----3-------3---|-----3-------3---|
G|-----0-------0---|-----0-------0---|
D|-----0-------0---|-----0-------0---|
A|---------3-3---3-|-2-2---2---------|
E|-3-3---3---------|---------2-2---0-|
 |                 
 |Gtr II           
 | E E E E E E E E   E E E E E E E E 
e|-----------------|-----------------|
B|-3-3-3-3-3-3-3-3-|-3-3-3-3-3-3-3-3-|
G|-0-0-0-0-0-0-0-0-|-0-0-0-0-0-0-0-0-|
D|-0-0-0-0-0-0-0-0-|-0-0-0-0-0-0-0-0-|
A|---------3-3-3-3-|-2-2-2-2---------|
E|-3-3-3-3---------|---------2-2-2-2-|

  Gtr I
   E Q E  H     W
e|-----0-(0)-|-(0)-|
B|-----0-(0)-|-(0)-|
G|-0-0-0-(0)-|-(0)-|
D|-4-4-4-(4)-|-(4)-|
A|-2-2-2-(2)-|-(2)-|
E|-----------|-----|
 |           
 |Gtr II 
 | Q.  E  H     W   
e|-----2-(2)-|-(2)-|
B|-----0-(0)-|-(0)-|
G|-----0-(0)-|-(0)-|
D|-2---------|-----|
A|-2---------|-----|
E|-0---------|-----|

[Pre-chorus]

  Gtr I
   E E E E E E E E   E E E S S E E E E
e|-----------------|-------------------|
B|-1-1-1-1-0-0-0-0-|-1-1-1-1-1-1-0-1-0-|
G|-0-0-0-0-0-0-0-0-|-0-0-0-0-0-0-0-0-0-|
D|-2-2-2-2-2-2-2-2-|-2-2-2-2-2-2-2-2-2-|
A|-3-3-3-3-3-3-3-3-|-3-3-3-3-3-3-3-3-3-|
E|-----------------|-------------------|
 |
 |Gtr II
 | E E E E E E E E   E E E E   E E E E
e|-----------------|-------------------|
B|-3-3-3-3-3-3-3-3-|-3-3-3-3---3-3-3-3-|
G|-0-0-0-0-0-0-0-0-|-0-0-0-0---0-0-0-0-|
D|-2-2-2-2-2-2-2-2-|-2-2-2-2---2-2-2-2-|
A|-3-3-3-3-3-3-3-3-|-3-3-3-3---3-3-3-3-|
E|-----------------|-------------------|

  Gtr I
   E S S E E E E E E   S S E E E   H
e|-------------------|-----------------------|
B|-------------7-----|-7h8-7---10-(10)-------|
G|-----------7---7---|-7-7-7-7---------------|
D|-------7-9-------9-|-7h9-7-----------------|
A|---7h9-------------|-----------------------|
E|-------------------|-----------------------|
 |
 |Gtr II
 | E E   E E E E E E   E   E E E   E S E S E
e|-------------------|---------------------0-|
B|-------------------|-3---3-3-----3-3-3-3-0-|
G|-------------------|-2---2-2-----0-0-0-0-0-|
D|-4-4---4-4-4-4-4-4-|-0---0-0-0---0-0-0-0---|
A|-2-2---2-2-2-2-2-2-|-----------------3-3---|
E|-------------------|-----------------------|

[Chorus]

  Gtr I
   E E E E E E S E.   E E E E E.  E.  E
e|------------------|-------------------|
B|------------------|---------3---1---0-|
G|-2-2-2-2-2-2-2-0--|-0-0-0-0-----------|
D|-2-2-2-2-2-2-2-0--|-2-2-2-2-----------|
A|-0-0-0-0-0-0-0-2--|-3-3-3-3-----------|
E|------------------|-------------------|
 |
 |Gtr II
 | E E E E E E S E.   E E E E E S E S E
e|------------------|-------------------|
B|------------------|---------3-3-3-3-3-|
G|-2-2-2-2-2-2-2-0--|-0-0-0-0-0-0-0-0-0-|
D|-2-2-2-2-2-2-2-0--|-2-2-2-2-0-0-0-0-0-|
A|-0-0-0-0-0-0-0-2--|-3-3-3-3-----3-3-2-|
E|------------------|-------------------|

  Gtr I
   E E E E E E S E.   E E E E E S S S S E
e|------------------|---------------------|
B|------------------|---------3-3-----3-0-|
G|-2-2-2-2-2-2-2-0--|-0-0-0-0-----2h4-----|
D|-2-2-2-2-2-2-2-0--|-2-2-2-2-------------|
A|-0-0-0-0-0-0-0-2--|-3-3-3-3-------------|
E|------------------|---------------------|
 |
 |Gtr II
 | E E E E E E S E.   E E E E E S E   S E
e|------------------|---------------------|
B|------------------|---------------------|
G|-2-2-2-2-2-2-2-0--|-0-0-0-0-0-0-0---0---|
D|-2-2-2-2-2-2-2-0--|-2-2-2-2-0-0-0---0-2-|
A|-0-0-0-0-0-0-0-2--|-3-3-3-3-------------|
E|------------------|---------------------|

  Gtr I
   E E E E E E E E   E E E E E E E E    W
e|-----------------|-----------------|-----||
B|-----------------|---------1-0-0---|-----||
G|-0-0-0-0-0-0-0-0-|-0-0-0-0---------|-----||
D|-0-0-0-0-0-0-0-0-|-0-0-0-0-------0-|-(0)-||
A|---------3-3-3-3-|-----------------|-----||
E|-3-3-3-3---------|-3-3-3-3---------|-----||
 |
 |Gtr II
 | E E E E E E E E   E E E E E E E E    W
e|-----------------|-----------------|-----||
B|-----------------|---------------3-|-(3)-||
G|-0-0-0-0-0-0-0-0-|-0-0-0-0-0-0-0-2-|-(2)-||
D|-0-0-0-0-0-0-0-0-|-0-0-0-0-0-0-0-0-|-(0)-||
A|---------3-3-3-3-|---------3-2-2---|-----||
E|-3-3-3-3---------|-3-3-3-3---------|-----||

[Verse 2]

  Gtr I
   E Q   E H         E Q   E Q.    E
e|-----------------|-----------------|
B|-----------------|-----------------|
G|-0-0-------------|-----------------|
D|-------4-2-------|-0-0---2-0-----0-|
A|-----------------|-----------------|
E|-----------------|-----------------|
 |                 
 |Gtr II           
 | E E E E E E E E   E E E E E E E E 
e|-----------------|-----------------|
B|-3-3-3-3-3-3-3-3-|-3-3-3-3-3-3-3-3-|
G|-0-0-0-0-0-0-0-0-|-0-0-0-0-0-0-0-0-|
D|-0-0-0-0-0-0-0-0-|-0-0-0-0-0-0-0-0-|
A|---------3-3-3-3-|-2-2-2-2---------|
E|-3-3-3-3---------|---------2-2-2-2-|

  Gtr I
  Let ring___________________|
   E E E E  H    E E E Q E Q
e|-------0-(0)-|-0-----------|
B|-------0-(0)-|---0---------|
G|-------0-(0)-|-----0-------|
D|-----4-------|-------4-4---|
A|---2---------|-----------2-|
E|-0-----------|-------------|
 |           
 |Gtr II 
 | Q.    E  H     W   
e|-------2-(2)-|-(2)---------|
B|-------0-(0)-|-(0)---------|
G|-------0-(0)-|-(0)---------|
D|-2-----------|-------------|
A|-2-----------|-------------|
E|-0-----------|-------------|

  Gtr I
   E E E E E E E E   E E E E Q.    E
e|-----------------|-----------------|
B|-----------------|-----------------|
G|-0-0-0-----0-0---|---0-0-----------|
D|-------4-2-----2-|-0-----2-0-----0-|
A|-----------------|-----------------|
E|-----------------|-----------------|
 |                 
 |Gtr II           
 | E E E E E E E E   E E E E E E E E 
e|-----------------|-----------------|
B|-3-3-3-3-3-3-3-3-|-3-3-3-3-3-3-3-3-|
G|-0-0-0-0-0-0-0-0-|-0-0-0-0-0-0-0-0-|
D|-0-0-0-0-0-0-0-0-|-0-0-0-0-0-0-0-0-|
A|---------3-3-3-3-|-2-2-2-2---------|
E|-3-3-3-3---------|---------2-2-2-2-|

  Gtr I
  Let ring_______________________|
   E E E E  Q. E   E E E E E Q E
e|-------0-(0)---|-0-------------|
B|-------0-(0)-0-|---0-----------|
G|-------0-(0)---|-----0---0-----|
D|-----4---------|-------4-------|
A|---2-----------|-----------2-2-|
E|-0-------------|---------------|
 |           
 |Gtr II 
 | Q.    E  H     W   
e|-------2-(2)---|-(2)-----------|
B|-------0-(0)---|-(0)-----------|
G|-------0-(0)---|-(0)-----------|
D|-2-------------|---------------|
A|-2-------------|---------------|
E|-0-------------|---------------|

[Pre-chorus]

  Gtr I
   E E E Q   Q   E   E E E E E Q   E
e|-----------------|-----------------|
B|-----------------|-----------------|
G|-0-0-0-0---0---0-|-0-0-0-0-0-0-----|
D|-4-4-4-4---2---2-|-2-2-2-2-2-2-----|
A|-----------------|-3-3-3-3-3-3-----|
E|-----------------|---------------0-|
 |
 |Gtr II
 | E E E E E E E E   E E E Q   E E E
e|-----------------|-----------------|
B|-1-1-1-1-3-3-3-3-|-1-1-1-1---1-1-1-|
G|-0-0-0-0-0-0-0-0-|-0-0-0-0---0-0-0-|
D|-2-2-2-2-2-2-2-2-|-2-2-2-2---2-2-2-|
A|-3-3-3-3-3-3-3-3-|-3-3-3-3---3-3-3-|
E|-----------------|-----------------|

  Gtr I
   S S E E E E E E E   S S E Q   H
e|-----------7-------|---------------------|
B|---------7-7-7-----|-7h8-7-----10--------|
G|-----7-7-7---7-7-x-|-7-7-7---------------|
D|-----7-7-------7-x-|-7h9-7-7---7---------|
A|-7h9---------------|---------------------|
E|-------------------|---------------------|
 |
 |Gtr II
 | E   E E E E E E E   E   E E E E S E S E
e|-------------------|---------------------|
B|-------------------|-3---3-3---3-3-3-3-3-|
G|-------------------|-2---2-2---0-0-0-0-0-|
D|-4---4-4-4-4-4-4-4-|-0---0-0-0-0-0-0-0-0-|
A|-2---2-2-2-2-2-2-2-|---------------3-3-2-|
E|-------------------|---------------------|

[Chorus]

  Gtr I
   E E E E E E S E.   E E E E E.  E.  E
e|------------------|-------------------|
B|------------------|---------3---1---0-|
G|-2-2-2-2-2-2-2-0--|-0-0-0-0-----------|
D|-2-2-2-2-2-2-2-0--|-2-2-2-2-----------|
A|-0-0-0-0-0-0-0-2--|-3-3-3-3-----------|
E|------------------|-------------------|
 |
 |Gtr II
 | E E E E E E S E.   E E E E E S E S E
e|------------------|-------------------|
B|------------------|---------3-3-3-3-3-|
G|-2-2-2-2-2-2-2-0--|-0-0-0-0-0-0-0-0-0-|
D|-2-2-2-2-2-2-2-0--|-2-2-2-2-0-0-0-0-0-|
A|-0-0-0-0-0-0-0-2--|-3-3-3-3-----3-3-2-|
E|------------------|-------------------|

  Gtr I
   E E E E E E S E.   E E E E E.  E.  E
e|------------------|-------------------|
B|------------------|---------3---3---3-|
G|-2-2-2-2-2-2-2-0--|-0-0-0-0-----------|
D|-2-2-2-2-2-2-2-0--|-2-2-2-2-----------|
A|-0-0-0-0-0-0-0-2--|-3-3-3-3-----------|
E|------------------|-------------------|
 |
 |Gtr II
 | E E E E E E S E.   E E E E E S E S E
e|------------------|-------------------|
B|------------------|-------------------|
G|-2-2-2-2-2-2-2-0--|-0-0-0-0-0-0-0-0---|
D|-2-2-2-2-2-2-2-0--|-2-2-2-2-0-0-0-0-2-|
A|-0-0-0-0-0-0-0-2--|-3-3-3-3-----------|
E|------------------|-------------------|

  Gtr I
   E E E E E E E E   E E E E E E E E
e|-----------------|-----------------||
B|-----------------|---------1-0-0-0-||
G|-0-0-0-0-0-0-0-0-|-0-0-0-0---------||
D|-0-0-0-0-0-0-0-0-|-0-0-0-0---------||
A|---------3-3-3-3-|-----------------||
E|-3-3-3-3---------|-3-3-3-3---------||
 |
 |Gtr II
 | E E E E E E E E   E E E E E E E E
e|-----------------|-----------------||
B|-----------------|-----------------||
G|-0-0-0-0-0-0-0-0-|-0-0-0-0-0-0-0-0-||
D|-0-0-0-0-0-0-0-0-|-0-0-0-0-0-0-0-0-||
A|---------3-3-3-3-|---------3-2-2-2-||
E|-3-3-3-3---------|-3-3-3-3---------||

[Bridge]

                              1.,2.
    Gtr I                     2/4
     S E.  E S E S E E   S S   S S S S S S S S
e||o-2-3---3-3-2-3-3-3---3-3-|-----------------o||
B||o-3-3---3-3-3-3-3-3---3-3-|-----3-----3---3-o||
G||o-------------------------|---0-----0-------o||
D||o-------------------------|-----------------o||
A||o-------------------------|-3-----2-----0---o||
E||o-------------------------|-----------------o||
 ||                          
 || Gtr II                   
 ||  E   E E S E.  E E   E     E   S E   S E    
e||o-------------------------|-----------------o||
B||o-3---3-3-3---------------|-----------------o||
G||o-2---2-2-2-0---0-0---0---|-0---0-0---0-0---o||
D||o-0---0-0-0-0---0-0---0---|-0---0-0---0-2---o||
A||o-----------2---2-2---2---|-3---3-2---2-0---o||
E||o-------------------------|-----------------o||
 ||                          
 || Gtr III                  
 ||  S E.  E.  E E.  S S S S   E   S E   S E    
e||o-2-3---3---2-3---3-3-3-3-|-----------------o||
B||o-3-3---3---3-3---3-3-3-3-|-3---3-3---3-3---o||
G||o-2-2---2---0-0---0-0-0-0-|-0---0-0---0-0---o||
D||o-0-0---0---0-0---0-0-0-0-|-0---0-0---0-2---o||
A||o-----------2-2---2-2-2-2-|-3---3-2---2-0---o||
E||o-------------------------|-----------------o||

  3.
  Gtr I           4/4
   S S S S S S E    H  E
e|---------------|-------||
B|-----3-----3---|-------||
G|---0-----0-----|-------||
D|---------------|-------||
A|-3-----2-----0-|-(0)---||
E|---------------|-------||
 |               
 |Gtr II         
 | E   S E   S E    H  E 
e|---------------|-------||
B|---------------|-------||
G|-0---0-0---0-0-|-(0)---||
D|-0---0-0---0-2-|-(2)---||
A|-3---3-2---2-0-|-(0)---||
E|---------------|-------||
 |               
 |Gtr III        
 | E   S E   S E    H  E 
e|---------------|-------||
B|-3---3-3---3-3-|-(3)---||
G|-0---0-0---0-0-|-(0)---||
D|-0---0-0---0-2-|-(2)---||
A|-3---3-2---2-0-|-(0)---||
E|---------------|-------||

[Verse 3]

  Gtrs I&II
   W   W   W   W   W   W   W   W
e|---|---|---|---|---|---|---|---|
B|---|---|---|---|---|---|---|---|
G|---|---|---|---|---|---|---|---|
D|---|---|---|---|---|---|---|---|
A|---|---|---|---|---|---|---|---|
E|---|---|---|---|---|---|---|---|

[Pre-chorus]

  Gtr I
   E E E Q     Q   E   E E E E S S E E E
e|-------------------|-------------------|
B|-------------------|-------------------|
G|-0-0-0-0-----0---0-|-0-0-0-0-0-0-0-0-0-|
D|-4-4-4-4-----2---2-|-2-2-2-2-2-2-2-2-2-|
A|-------------------|-3-3-3-3-3-3-3-3-3-|
E|-------------------|-------------------|
 |
 |Gtr II
 | E E E E S S E E E   E E E E S S E E E
e|-------------------|-------------------|
B|-1-1-1-1-0-0-0-0-0-|-1-1-1-1-0-0-0-0-0-|
G|-0-0-0-0-0-0-0-0-0-|-0-0-0-0-0-0-0-0-0-|
D|-2-2-2-2-2-2-2-2-2-|-2-2-2-2-2-2-2-2-2-|
A|-3-3-3-3-3-3-3-3-3-|-3-3-3-3-3-3-3-3-3-|
E|-------------------|-------------------|

  Gtr I
   E E E E S S E E E   S S E E E  E  Q    E
e|-7-----------------|----------------------|
B|---7-----------7---|-7h8-7---10-10--------|
G|-----7---------7---|-7-7---7-------7------|
D|-------------7-----|-7h9----------------7-|
A|-------9-7h9-----0-|----------------------|
E|-------------------|----------------------|
 |
 |Gtr II
 | E E E E E   E E E   E   E E E  E  S E. E
e|-------------------|----------------------|
B|-------------------|-3---3-3----3--3-1--0-|
G|-------------------|-2---2-2----0--0------|
D|-4-4-4-4-4---4-4-4-|-0---0-0-0--0--0------|
A|-2-2-2-2-2---2-2-2-|----------------------|
E|-------------------|----------------------|

[Chorus]

  Gtr I
   E E E E E E S E.   E E E E E.  E.  E
e|------------------|-------------------|
B|------------------|---------3---1---0-|
G|-2-2-2-2-2-2-2-0--|-0-0-0-0-----------|
D|-2-2-2-2-2-2-2-0--|-2-2-2-2-----------|
A|-0-0-0-0-0-0-0-2--|-3-3-3-3-----------|
E|------------------|-------------------|
 |
 |Gtr II
 | E E E E E E S E.   E E E E E S E S E
e|------------------|-------------------|
B|------------------|---------3-3-3-3-3-|
G|-2-2-2-2-2-2-2-0--|-0-0-0-0-0-0-0-0-0-|
D|-2-2-2-2-2-2-2-0--|-2-2-2-2-0-0-0-0-0-|
A|-0-0-0-0-0-0-0-2--|-3-3-3-3-----3-3-2-|
E|------------------|-------------------|

  Gtr I
   E E E E E E S E.   E E E E E.  E.  E
e|------------------|-------------------|
B|------------------|---------3---3---3-|
G|-2-2-2-2-2-2-2-0--|-0-0-0-0-----------|
D|-2-2-2-2-2-2-2-0--|-2-2-2-2-----------|
A|-0-0-0-0-0-0-0-2--|-3-3-3-3-----------|
E|------------------|-------------------|
 |
 |Gtr II
 | E E E E E E S E.   E E E E E S E S E
e|------------------|-------------------|
B|------------------|-------------------|
G|-2-2-2-2-2-2-2-0--|-0-0-0-0-0-0-0-0---|
D|-2-2-2-2-2-2-2-0--|-2-2-2-2-0-0-0-0-2-|
A|-0-0-0-0-0-0-0-2--|-3-3-3-3-----------|
E|------------------|-------------------|

  Gtr I
   E E E E E E E E   E E E E E E E E
e|-----------------|-----------------||
B|-----------------|---------1-0-0---||
G|-0-0-0-0-0-0-0-0-|-0-0-0-0---------||
D|-0-0-0-0-0-0-0-0-|-0-0-0-0-------0-||
A|---------3-3-3-3-|-----------------||
E|-3-3-3-3---------|-3-3-3-3---------||
 |
 |Gtr II
 | E E E E E E E E   E E E E E E E E
e|-----------------|-----------------||
B|-----------------|-----------------||
G|-0-0-0-0-0-0-0-0-|-0-0-0-0-0-0-0-0-||
D|-0-0-0-0-0-0-0-0-|-0-0-0-0-0-0-0-0-||
A|---------3-3-3-3-|---------3-2-2-2-||
E|-3-3-3-3---------|-3-3-3-3---------||

[Outro]

                              1.,2.,3.,4.,5.,6.,7.
    Gtr I                     2/4
     S E.  E S E S E E   S S   S S S S S S S S
e||o-2-3---3-3-2-3-3-3---3-3-|-----------------o||
B||o-3-3---3-3-3-3-3-3---3-3-|-----3-----3---3-o||
G||o-------------------------|---0-----0-------o||
D||o-------------------------|-----------------o||
A||o-------------------------|-3-----2-----0---o||
E||o-------------------------|-----------------o||
 ||                          
 || Gtr II                   
 ||  E   E E S E.  E E   E     E   S E   S E    
e||o-------------------------|-----------------o||
B||o-3---3-3-3---------------|-----------------o||
G||o-2---2-2-2-0---0-0---0---|-0---0-0---0-0---o||
D||o-0---0-0-0-0---0-0---0---|-0---0-0---0-2---o||
A||o-----------2---2-2---2---|-3---3-2---2-0---o||
E||o-------------------------|-----------------o||
 ||                          
 || Gtr III                  
 ||  S E.  E.  E E.  S S S S   E   S E   S E    
e||o-2-3---3---2-3---3-3-3-3-|-----------------o||
B||o-3-3---3---3-3---3-3-3-3-|-3---3-3---3-3---o||
G||o-2-2---2---0-0---0-0-0-0-|-0---0-0---0-0---o||
D||o-0-0---0---0-0---0-0-0-0-|-0---0-0---0-2---o||
A||o-----------2-2---2-2-2-2-|-3---3-2---2-0---o||
E||o-------------------------|-----------------o||

  8.
  Gtr I           4/4
   S S S S S S E    H  E
e|---------------|-------*|
B|-----3-----3---|-------*|
G|---0-----0-----|-------*|
D|---------------|-------*|
A|-3-----2-----0-|-(0)---*|
E|---------------|-------*|
 |               
 |Gtr II         
 | E   S E   S E    H  E 
e|---------------|-------*|
B|---------------|-------*|
G|-0---0-0---0-0-|-(0)---*|
D|-0---0-0---0-2-|-(2)---*|
A|-3---3-2---2-0-|-(0)---*|
E|---------------|-------*|
 |               
 |Gtr III        
 | E   S E   S E    H  E 
e|---------------|-------*|
B|-3---3-3---3-3-|-(3)---*|
G|-0---0-0---0-0-|-(0)---*|
D|-0---0-0---0-2-|-(2)---*|
A|-3---3-2---2-0-|-(0)---*|
E|---------------|-------*|            
Submit corrections


        Black Star lessons Hard to play? Try these video lessons and learn fast Black Star lessons
        
↑ Back to top | Tablatures and chords for acoustic guitar and electric guitar, ukulele, drums are parodies/interpretations of the original songs. You may use it for private study, scholarship, research or language learning purposes only