» » »

Radio Futura - Escuela De Calor Bass

Artists:  A B C D E F G H I J K L M N O P Q R S T U V W X Y Z # 

Escuela De Calor Bass

(ver. 1) Click to play this song!
Radio Futura
 Rating:
3.3/5 (8 votes)
    Escuela De Calor lessons Tabs too difficult? Try these video lessons and learn fast
                Standard Tuning E,A,D,G

LISTEN TO SONG FOR TIMING

CHORUS

G------------------------------|
D------------------------------|
A--------/7----------------7---|
E-----------9--3-3-3-5-5-5---9-| [X5]

BRIDGE

G--------------------------------|
D--------------------------------|
A---5-5---7-7---5-5---7-7--------|
E--3-3-3-5-5-5-3-3-3-5-5-5-4-3---|

BACK TO CHORUS

RIFF                                                       p pp p
G----------------------------------------------- THEN -----2-0----|
D-----------------------------------------------      --------2-0-|
A-----------------------------------------------      ------------|
E--3-3-0-3-2-0--5-5-3-5-3-0--3-3-0-3-2-0--5---5- [X3] ---------3--|        BACK TO
CHORUS


ENDING

E--3-3-3-3-3-3-3-5-5-5-5-5-5-0-2-3---[REPEAT 4X]

THEN END WITH

E-5555555--
            
Submit corrections

↑ Back to top | Tablatures and chords for acoustic guitar and electric guitar, ukulele, drums are parodies/interpretations of the original songs. You may use it for private study, scholarship, research or language learning purposes only