Home » R » Rachael Yamagata »

Rachael Yamagata - Worn Me Down Tabs

Artists:  A B C D E F G H I J K L M N O P Q R S T U V W X Y Z # 

Worn Me Down Tabs

(ver. 2) Click to play this song!
Rachael Yamagata
Worn Me Down – Rachael Yamagata
Capo 2
Chords used:
     G    D   Em    C
e --------2-----------|
B ---3----3----0----1-|
G ---0----2----0----0-|
D ---0----0----2----2-|
A ---2---------2----3-|
E ---3---------0------|
. denotes palm mute


Verse
    .. .. .  .. . .   .. .. .  .. .. .
e ---------|22222222|--------|--------|
B -33333333|33333333|00000000|11111111|
G -00000000|22222232|00000000|00000000|
D -00000000|00000000|22222222|22222222|   X3
A -22222222|--------|22222222|33333333|
E -33333333|--------|00000000|--------|

And I wish you the best...
e --------|2-2-2-2-|--------|--------|
B 3-3-3-3-|3-3-3-3-|0-0-0-0-|1-1-1-1-|
G 0-0-0-0-|2-2-2-2-|0-0-0-0-|0-0-0-0-|
D 0-0-0-0-|0-0-0-0-|2-2-2-2-|2-2-2-2-|    X3
A 2-2-2—2-|--------|2-2-2-2-|3-3-3-3-|
E 3-3-3-3-|--------|0-0-0-0-|--------|

Chorus
    .. .. .  .. . .   .. .. .  .. .. .
e ---------|22222222|--------|--------|
B -33333333|33333333|00000000|11111111|
G -00000000|22222232|00000000|00000000|
D -00000000|00000000|22222222|22222222|   X2
A -22222222|--------|22222222|33333333|
E -33333333|--------|00000000|--------|

But you can’t stop...
e --------|2-2-2-2-|--------|--------|
B 3-3-3-3-|3-3-3-3-|0-0-0-0-|1-1-1-1-|
G 0-0-0-0-|2-2-2-2-|0-0-0-0-|0-0-0-0-|
D 0-0-0-0-|0-0-0-0-|2-2-2-2-|2-2-2-2-|    X2
A 2-2-2—2-|--------|2-2-2-2-|3-3-3-3-|
E 3-3-3-3-|--------|0-0-0-0-|--------|

Verse 2
You’re wrong...
e --------|2-2-2-2-|--------|--------|
B 3-3-3-3-|3-3-3-3-|0-0-0-0-|1-1-1-1-|
G 0-0-0-0-|2-2-2-2-|0-0-0-0-|0-0-0-0-|
D 0-0-0-0-|0-0-0-0-|2-2-2-2-|2-2-2-2-|    X5
A 2-2-2—2-|--------|2-2-2-2-|3-3-3-3-|
E 3-3-3-3-|--------|0-0-0-0-|--------|

Chorus
    .. .. .  .. . .   .. .. .  .. .. .
e ---------|22222222|--------|--------|
B -33333333|33333333|00000000|11111111|
G -00000000|22222232|00000000|00000000|
D -00000000|00000000|22222222|22222222|   X2
A -22222222|--------|22222222|33333333|
E -33333333|--------|00000000|--------|

But you can’t stop...
e --------|2-2-2-2-|--------|--------|
B 3-3-3-3-|3-3-3-3-|0-0-0-0-|1-1-1-1-|
G 0-0-0-0-|2-2-2-2-|0-0-0-0-|0-0-0-0-|
D 0-0-0-0-|0-0-0-0-|2-2-2-2-|2-2-2-2-|    X2
A 2-2-2—2-|--------|2-2-2-2-|3-3-3-3-|
E 3-3-3-3-|--------|0-0-0-0-|--------|

Bridge
She’s so pretty, she’s so damn right
e --------|2-2-2-2-|--------|2-2-2-2-|
B 1-1-1-1-|3-3-3-3-|1-1-1-1-|3-3-3-3-|
G 0-0-0-0-|2-2-2-2-|0-0-0-0-|2-2-2-2-|
D 2-2-2-2-|0-0-0-0-|2-2-2-2-|0-0-0-0-|
A 3-3-3-3-|--------|3-3-3-3-|--------|
E --------|--------|--------|--------|

But I’m so tired of thinking about her again tonight
e --------|2-2-2-2-|--------|2-2-2-2-|
B 1-1-1-1-|3-3-3-3-|0-0-0-0-|3-3-3-3-|
G 0-0-0-0-|2-2-2-2-|0-0-0-0-|2-2-2-2-|
D 2-2-2-2-|0-0-0-0-|2-2-2-2-|0-0-0-0-|
A 3-3-3-3-|--------|2-2-2-2-|--------|
E --------|--------|0-0-0-0-|--------|


Chorus

Alternatively, you can play this without the capo:
  A    E    F#   D
e ---------------2-|
B 2--------------3-|
G 2----1---------2-|
D 2----2----4----0-|
A -----2----4------|
E ----------2------|
            
Submit corrections

↑ Back to top | Tablatures and chords for acoustic guitar and electric guitar, ukulele, drums are parodies/interpretations of the original songs. You may use it for private study, scholarship, research or language learning purposes only