» » »

Ra - On My Side Tabs

Artists:  A B C D E F G H I J K L M N O P Q R S T U V W X Y Z # 

On My Side Tabs

(ver. 1) Click to play this song!
Ra
 Rating:
4/5 (8 votes)
                RA - On My Side

Chris Foskey

This is very similar to another tab on this site, but you can hear sliding
on the track, so thats indicating the chords used are not open ones.

Drop D

Intro:
E|---------------------------------------------|
B|-----8---------7---------3---------0h1-0-----|
G|-------9---------9---------------------------|
D|---9---------9---------5---5-----2-----------|
A|-7---------7---------3---------0-------------|
D|---------------------------------------------|

E|---------------------------------------------|
B|-----8---------7---------3---------0h1-0-----|
G|-------9---------9-----------------------0---|
D|---9---------9---------5---5-----2-----------| repeat
A|-7---------7---------3---------0-------------|
D|---------------------------------------------|


Prechorus:
E|--5--3--|
B|--5--3--|
G|--7--5--|
D|--7--5--|
A|--5--3--|
D|--------|

"And I will..."


Chorus:
E|----------|
B|--5-------|
G|--4---5---|
D|--2---5---|
A|--2---3---|
D|--2-------|

"If only..."


Bridge:
E|------------------------|
B|------------------------|
G|------------------7-7---|
D|--7-7-7-7-5-5-5-5-7-7---| x3
A|--7-7-7-7-5-5-5-5-5-5---|
D|--7-7-7-7-5-5-5-5-0-0---|

E|------------|
B|------------|
G|---5---7-7--|
D|---5---7-7--| repeat the C, then quick D
A|---3---5-5--| before chorus
D|-------0-0--
            
Submit corrections

↑ Back to top | Tablatures and chords for acoustic guitar and electric guitar, ukulele, drums are parodies/interpretations of the original songs. You may use it for private study, scholarship, research or language learning purposes only