» » »

Puscifer - Dozo Tabs

Artists:  A B C D E F G H I J K L M N O P Q R S T U V W X Y Z # 

Dozo Tabs

(ver. 1) Click to play this song!
Puscifer
 Rating:
4/5 (4 votes)

 Dozo lessons Tabs too difficult? Try these video lessons and learn fast
 
                E-----------------------------------------|
B-----------------------------------------|
G-- 2-2-2--2--0--2----------------- ------|
D-- 2-2-2--2--0--2------------------------|
A-- 0-0-0--0--0--0------------------------|    Whole Song
E-----------------------------------------|
PM----------------------------------------|

E----------------------------------|
B----------------------------------|
G---0--2------------0--2-----------|
D----------------------------------|    X2
A------------0--------------0------|
E----------------------------------|


E---------------------------------------|
B---------------------------------------|
G-----5--0--2------------5----0-- ------|        X2
D------------------0---------------2----|
A----------------------------------0----|
E---------------------------------------|
            
Submit corrections


        Dozo lessons Hard to play? Try these video lessons and learn fast Dozo lessons
        
↑ Back to top | Tablatures and chords for acoustic guitar and electric guitar, ukulele, drums are parodies/interpretations of the original songs. You may use it for private study, scholarship, research or language learning purposes only