» » »

Punchline - Here Goes Nothing Bass

Artists:  A B C D E F G H I J K L M N O P Q R S T U V W X Y Z # 

Here Goes Nothing Bass

(ver. 2) Click to play this song!
Punchline
 Rating:
4/5 (4 votes)
    Here Goes Nothing lessons Tabs too difficult? Try these video lessons and learn fast
                hey peeps this is my first but im almost posotive this is right so lets just hope if its 

G|---------------------------------------------------------|
D|---------------------------------------------------------|
A|3-5-7--5-7-9--10-10-10-9--5--3-7-10-3-5-7-5-7-9--10---10-|
E|---------------------------------------------------------|

skip 2 measures-then join in with...
g|---------------------------------------------------------|
d|---------------------------------------------------------|
a|---------------------------------------------------------|x's 6
e|-3333--7777--3333--9999--3333--7777--3333--5555----------|

g|---------------------------------------------------------|
d|---------------------------------------------------------|
a|-------------2222--3333----------------------------------|x's 4
e|-3333--5555----------------------------------------------|

g|---------------------------------------------------------|
d|---------------------------------------------------------|
a|-------------22----33------------------------------------|x's 5
e|-33----55------------------------------------------------|

g|---------------------------------------------------------|
d|---------------------------------------------------------|
a|---------------------------------------------------------|x's 6
e|-3333--7777--3333--9999--3333--7777--3333--5555----------|

g|---------------------------------------------------------|
d|---------------------------------------------------------|
a|-------------2222--3333----------------------------------|x's 6
e|-3333--5555----------------------------------------------|
pause
g|---------------------------------------------------------|
d|---------------------------------------------------------|
a|-------------2222--3333----------------------------------|
e|-3333--5555----------------------------------------------|

g|---------------------------------------------------------|
d|---------------------------------------------------------|
a|-------------22----33------------------------------------|x's 2
e|-33----55------------------------------------------------|
hold last c (a|-3-|)
            
Submit corrections

↑ Back to top | Tablatures and chords for acoustic guitar and electric guitar, ukulele, drums are parodies/interpretations of the original songs. You may use it for private study, scholarship, research or language learning purposes only