» » »

Psychostick - Pluhcom Tabs

Artists:  A B C D E F G H I J K L M N O P Q R S T U V W X Y Z # 

Pluhcom Tabs

(ver. 2) Click to play this song!
Psychostick
 Rating:
4.5/5 (8 votes)

 Pluhcom lessons Tabs too difficult? Try these video lessons and learn fast
 
                PSYCHOSTICK-THE DUMB SONG
this is actually by pluh.com but nobody is ever going to search that so they can find
about this song here.  Its a pretty funny song check it out.


INTRO:
D-0-0-0-0-0-0-0-0-----0-0-0-0---0-0-0-0-|
A---------------------------------------|
D---------------------------------------| x4
G---------------------------------------|
B---------------------------------------|
E---------------------------------------|

BRIDGE
D-0-0----0-0-0-----0-0-0----0-0-0----0-0-0-------|
A-----5---------5-------5---------5---------5----|
D------------------------------------------------|
G------------------------------------------------| x2
B------------------------------------------------|
E------------------------------------------------|

VERSE (clean)
D-5---5---5-5-5-5-10-10-10--10-10-6-6-5---5---5-5-5-5-10-10-10--10-10/11-11-|
A-5---5---5-5-5-5-10-10-10--10-10-6-6-5---5---5-5-5-5-10-10-10--10-10/11-11-|
D-5---5---5-5-5-5-10-10-10--10-10-6-6-5---5---5-5-5-5-10-10-10--10-10/11-11-|
G---------------------------------------------------------------------------|
B---------------------------------------------------------------------------|
E---------------------------------------------------------------------------|

D-5---5---5-5-5-5-10-10-10--10-10-6-6-5---5---5-5-5-5-10--|b
A-5---5---5-5-5-5-10-10-10--10-10-6-6-5---5---5-5-5-5-10--|b
D-5---5---5-5-5-5-10-10-10--10-10-6-6-5---5---5-5-5-5-10--|b
G---------------------------------------------------------|
B---------------------------------------------------------|
E---------------------------------------------------------|

VERSE (Distortion)
D-5---5x5x5--5--5--10-10-10x10x10-6-6-|
A-5---5x5x5--5--5--10-10-10x10x10-6-6-|
D-5---5x5x5--5--5--10-10-10x10x10-6-6-|
G-------------------------------------| x2
B-------------------------------------|
E-------------------------------------|

D-5---5x5x5--5--5--10-10-10x10x10-6-6-5--6-6-5--|
A-5---5x5x5--5--5--10-10-10x10x10-6-6-5--6-6-5--|
D-5---5x5x5--5--5--10-10-10x10x10-6-6-5--6-6-5--|
G-----------------------------------------------|
B-----------------------------------------------|
E-----------------------------------------------|

D-5---5x5x5--5--5--10-10-10x10x10-10/11-11-|
A-5---5x5x5--5--5--10-10-10x10x10-10/11-11-|
D-5---5x5x5--5--5--10-10-10x10x10-10/11-11-|
G------------------------------------------|
B------------------------------------------|
E------------------------------------------|

BRIDGE

VERSE (With a few slight differences)

CHORUS
D-2--------10----------2---------0--|
A-2--------10----------2---------0--|
D-2--------10----------2---------0--|
G-----------------------------------| x2
B-----------------------------------|
E-----------------------------------|

VERSE (clean)

VERSE (Distorted again a little variation)

REALLY LONG LINE PART
D-5----------5-------------5-|
A-5----------5-------------5-|
D-5----------5-------------5-|
G----------------------------| Then back to end of verse
B----------------------------|
E----------------------------|

CHORUS

NEXT PART
D-4\3---4\2---2\1--|
A-4\3---4\2---2\1--|
D-4\3---4\2---2\1--|
G------------------| x4
B------------------|
E------------------|

(pm)
D-1-0--1-0--1-0--1-0--2--0--|
A---------------------------|
D---------------------------| x4
G---------------------------|
B---------------------------|
E---------------------------|

D-0h1--0h1--0h1--0h1--1h2p1p0--|
A-0h1--0h1--0h1--0h1--1h2p1p0--|
D------------------------------|
G------------------------------| x8
B------------------------------|
E------------------------------|

(clean)
D-5---5x5x5-5-5-10-10-10x10x10-|
A-5---5x5x5-5-5-10-10-10x10x10-|
D-5---5x5x5-5-5-10-10-10x10x10-|
G------------------------------|
B------------------------------|
E------------------------------|

(distorted)
D-0h1--0h1--0h1--0h1--1h2p1p0--|
A-0h1--0h1--0h1--0h1--1h2p1p0--|
D------------------------------|
G------------------------------| x4
B------------------------------|
E------------------------------|

CLEAN VERSE

DISTORED VERSE

DEFTONES CHORD
D------------------------|
A-9----------------------|
D-10---------------------|
G-11---------------------| something like that
B------------------------|
E------------------------|

LYRICS:
your dumb
your dumb
same thing
still dumb

Hey Murph, Your dumb!
No, your dumb!
No, no your dumb!
Well your dumb cuz you got glasses on
Well your...dumb!
Your nose is funny, and dumb
Oh yeah well your eyes are dumb
Well I cant sing while your dumb

Your books are overdue because your dumb
Oh yeah well your hamster ran away because your dumb
Your shirt shrunk in the wash because its cotton and your dumb
Your toilet overflowed

You know Murph, your not the only one thats dumb
Who else is dumb?
Everybody!
Your right there all dumb

Hey you, you...something...because your dumb
Yeah, and your downloading this song beacause your dumb
Your hemrroids are inflamed because your dumb
Your brains all stupid!

Oh say can you see?
Everyone is dumb but me
Im never ever wrong
And thats all youll ever beeeeeeeeeeeeeeeeeeeee (people who hold out notes are dumb, the
you do that, the dumber you sound)

Its daylight savings time because your dumb
That guy right there is dumb because your dumb
One time you went to McDonalds and got some french fries and ketchup so you sat down to
them but you couldnt get them open so you went to the store to buy some scissors but you
have enough money so you started running to your friends to borrow some money so you 
buy some scissors to open up your ketchup packets and enjoy your french fries more
and just before you got to his front door a piano fell on your head...because your dumb

DIDNT SEE THAT ONE COMING

Oh say can you see?
Everyone is dumb but me
Im never ever wrong
And thats all youll ever be
That was beautiful
Thank you, your still dumb!

Your dumb, the song, now die
Your dead, because, your dumb,
Oh wait, your still, alive
Your still, dumb none, theless

ROOOOAAAARRRRR!!!
He roared cuz your dumb!

Your dumb cuz you thought the heavy part was over!

You died while in the pit because your dumb
Your funeral was boring cuz your dumb
Your six feet underground because your dumb
Now your all dead and stuff

Your dumb cuz this sounds like a Deftones song!
Your dumb cuz pandas are in danger!
Your dumb because everything is composed of matter
Your dumb cuz...smiley face
Your dumb cuz this recording stuido is just a closet in my apartment
And...and...you dumb because im out of dumb things to say...dummy!  dumb..dumb...dumb...ahhh...dumb..blahhh
            
Submit corrections


        Pluhcom lessons Hard to play? Try these video lessons and learn fast Pluhcom lessons
        
↑ Back to top | Tablatures and chords for acoustic guitar and electric guitar, ukulele, drums are parodies/interpretations of the original songs. You may use it for private study, scholarship, research or language learning purposes only