» » »

Psychostick - Beer! Tabs

Artists:  A B C D E F G H I J K L M N O P Q R S T U V W X Y Z # 

Beer! Tabs

(ver. 1) Click to play this song!
Psychostick
 Rating:
4/5 (4 votes)

 Beer! lessons Tabs too difficult? Try these video lessons and learn fast
 
                -----------------------------------------------------------------------------
-----------------------------------------------------------------------------

Tuning: Drop C# (C# G# C# F# A# D#)

This tab is VERY close to the real song.

Note: Each “–“ is a sixteenth note, so four “–“‘s equal one beat. This should
      help with rhythm.

Intro
D#|-------------------------------------------------------------------------|
A#|-------------------------------------------------------------------------|
F#|-------------------------------------------------------------------------|
C#|-------------------------------------------------------------------------|
G#|--5---5---5-------5---5---5-------5---5---5-------5---5---5--------------|
C#|0---0---0---0-3-0---0---0---0-3-0---0---0---0-3-0---0---0---0-3----------|

Verse 1
D#|-------------------------------------------------------------------------|
A#|-------------------------------------------------------------------------|
F#|-------------------------------------------------------------------------|
C#|--7---7---7---5---7---7---7---5---7---7---7---5---6---6---6---5----------|
G#|--5---5---5---3---5---5---5---3---5---5---5---3---5---5---5---3----------|
C#|-------------------------------------------------------------------------|

D#|-------------------------------------------------------------------------|
A#|-------------------------------------------------------------------------|
F#|----------------------------------6---6---6---4---6---7------------------|
C#|--6---6---6---4---6---6---6---4---6---6---6---4---6---6------------------|
G#|--5---5---5---3---5---5---5---3---5---5---5---3---5---5------------------|
C#|-------------------------------------------------------------------------|

Chorus
D#|-------------------------------------------------------------------------|
A#|-------------------------------------------------------------------------|
F#|-------------------------------------------------------------------------|
C#|6-0-0---6-0-0---6-0-0-----0-0---00006---00006---00006--------------------|
G#|6-0-0---6-0-0---6-0-0-----0-0---00006---00006---00006--------------------|
C#|6-0-0---6-0-0---6-0-0-----0-0---00006---00006---00006--------------------|

D#|-------------------------------------------------------------------------|
A#|-------------------------------------------------------------------------|
F#|-------------------------------------------------------------------------|
C#|0-0060-00-0060-00-0060-00-0060-00-0060-00-0060-00-6-0-6-0----------------|
G#|0-0060-00-0060-00-0060-00-0060-00-0060-00-0060-00-6-0-6-0----------------|
C#|0-0060-00-0060-00-0060-00-0060-00-0060-00-0060-00-6-0-6-0----------------|

(Intro)
D#|-------------------------------------------------------------------------|
A#|-------------------------------------------------------------------------|
F#|-------------------------------------------------------------------------|
C#|-------------------------------------------------------------------------|
G#|--5---5---5-------5---5---5-------5---5---5-------5---5---5--------------|
C#|0---0---0---0-3-0---0---0---0-3-0---0---0---0-3-0---0---0---0-3----------|

Verse 2
D#|-------------------------------------------------------------------------|
A#|-------------------------------------------------------------------------|
F#|-------------------------------------------------------------------------|
C#|--7---7---7---5---7---7---7---5---7---7---7---5---6---6---6---5----------|
G#|--5---5---5---3---5---5---5---3---5---5---5---3---5---5---5---3----------|
C#|-------------------------------------------------------------------------|

D#|-------------------------------------------------------------------------|
A#|-------------------------------------------------------------------------|
F#|----------------------------------------------4---6---6------------------|
C#|--6---6---6---4---6---6---6---4---6---6---6---4---6---6------------------|
G#|--5---5---5---3---5---5---5---3---5---5---5---3---5---5------------------|
C#|-------------------------------------------------------------------------|

Chorus
D#|-------------------------------------------------------------------------|
A#|-------------------------------------------------------------------------|
F#|-------------------------------------------------------------------------|
C#|6-0-0---6-0-0---6-0-0-----0-0---00006---00006---00006--------------------|
G#|6-0-0---6-0-0---6-0-0-----0-0---00006---00006---00006--------------------|
C#|6-0-0---6-0-0---6-0-0-----0-0---00006---00006---00006--------------------|

D#|-------------------------------------------------------------------------|
A#|-------------------------------------------------------------------------|
F#|-------------------------------------------------------------------------|
C#|0-0060-00-0060-00-0060-00-0060-00-0060-00-0060-00-6-0-6-0----------------|
G#|0-0060-00-0060-00-0060-00-0060-00-0060-00-0060-00-6-0-6-0----------------|
C#|0-0060-00-0060-00-0060-00-0060-00-0060-00-0060-00-6-0-6-0----------------|

Breakdown
D#|-------------------------------------------------------------------------|
A#|-------------------------------------------------------------------------|
F#|-------------------------------------------------------------------------|
C#|1-0-0-0-1-0-0-0-1-0-0-0-3-4-3-2-1-0-0-0-1-0-0-0-1-0-0-0-3-4-3-2----------|
G#|1-0-0-0-1-0-0-0-1-0-0-0-3-4-3-2-1-0-0-0-1-0-0-0-1-0-0-0-3-4-3-2----------|
C#|1-0-0-0-1-0-0-0-1-0-0-0-3-4-3-2-1-0-0-0-1-0-0-0-1-0-0-0-3-4-3-2----------|

D#|-------------------------------------------------------------------------|
A#|-------------------------------------------------------------------------|
F#|-------------------------------------------------------------------------|
C#|1-0-0-0-1-0-0-0-1-0-0-0-3-4-3-2-1-0-0-0-1-0-0-0-1-0-0-0-3-4-3------------|
G#|1-0-0-0-1-0-0-0-1-0-0-0-3-4-3-2-1-0-0-0-1-0-0-0-1-0-0-0-3-4-3------------|
C#|1-0-0-0-1-0-0-0-1-0-0-0-3-4-3-2-1-0-0-0-1-0-0-0-1-0-0-0-3-4-3------------|

D#|-------------------------------------------------------------------------|
A#|-------------------------------------------------------------------------|
F#|-------------------------------------------------------------------------|
C#|--7---7---7---5---7---7---7----------------------------------------------|
G#|--5---5---5---3---5---5---5----------------------------------------------|
C#|-------------------------------------------------------------------------|

D#|-------------------------------------------------------------------------|
A#|-------------------------------------------------------------------------|
F#|-------------------------------------------------------------------------|
C#|1-0-0-0-1-0-0-0-1-0-0-0-3-4-3-2-1-0-0-0-1-0-0-0-1-0-0-0-3-4-3-2----------|
G#|1-0-0-0-1-0-0-0-1-0-0-0-3-4-3-2-1-0-0-0-1-0-0-0-1-0-0-0-3-4-3-2----------|
C#|1-0-0-0-1-0-0-0-1-0-0-0-3-4-3-2-1-0-0-0-1-0-0-0-1-0-0-0-3-4-3-2----------|

D#|-------------------------------------------------------------------------|
A#|-------------------------------------------------------------------------|
F#|-------------------------------------------------------------------------|
C#|1-0---0-1-0---0-1-0---0-3-4-3-2-1-0---0-1-0---0-1-0---0-3-4-3-2----------|
G#|1-0---0-1-0---0-1-0---0-3-4-3-2-1-0---0-1-0---0-1-0---0-3-4-3-2----------|
C#|1-0---0-1-0---0-1-0---0-3-4-3-2-1-0---0-1-0---0-1-0---0-3-4-3-2----------|


D#|-------------------------------------------------------------------------|
A#|-------------------------------------------------------------------------|
F#|-------------------------------------------------------------------------|
C#|1-0---0-1-0---0-1-0---0-3-4-3-2-1-0---0-1-0---0-1-0-0-0-0----------------|
G#|1-0---0-1-0---0-1-0---0-3-4-3-2-1-0---0-1-0---0-1-0-0-0-0----------------|
C#|1-0---0-1-0---0-1-0---0-3-4-3-2-1-0---0-1-0---0-1-0-0-0-0----------------|
            
Submit corrections


        Beer! lessons Hard to play? Try these video lessons and learn fast Beer! lessons
        
↑ Back to top | Tablatures and chords for acoustic guitar and electric guitar, ukulele, drums are parodies/interpretations of the original songs. You may use it for private study, scholarship, research or language learning purposes only