» » »

Procol Harum - A Whiter Shade Of Pale Bass

Artists:  A B C D E F G H I J K L M N O P Q R S T U V W X Y Z # 

A Whiter Shade Of Pale Bass

(ver. 1) Click to play this song!
Procol Harum
 Rating:
3.3/5 (6 votes)

 A Whiter Shade Of Pale lessons Tabs too difficult? Try these video lessons and learn fast
 
                Whiter Shade Of Pale by Procol Harum


Tuning : E A D G 	Time Signature: 4/4

 |   |   |   |    |   |   |   |    |   |   |   |    |   |   |   |    
|----------------|----------------|----------------|----------------|
|----------------|----------------|3-----3-2-----2-|0-----0---------|
|3-----3-2-----2-|0-----0---------|----------------|--------3-----3-|
|----------------|--------3-----3-|----------------|----------------|

 |   |   |   |    |   |   |   |    |   |   |   |    |   |   |   |    
|0-----0---------|----------------|----------------|0-----0---------|
|--------3-----3-|2-----2-0-----0-|--------3-----3-|----------------|
|----------------|----------------|3-----3---------|----------------|
|----------------|----------------|----------------|--------3---3---|

 |   |   |   |    |   |   |   |    |   |   |   |    |   |   |   |    
|----------------|----------------|----------------|----------------|
|----------------|----------------|3-----3-2-----2-|0-----0---------|
|3-----3-2-----2-|0-----0---------|----------------|--------3-----3-|
|----------------|--------3-----3-|----------------|----------------|

 |   |   |   |    |   |   |   |    |   |   |   |    |   |   |   |    
|0-----0---------|----------------|----------------|----------------|
|--------3-----3-|2-----2-0-----0-|----------------|----------------|
|----------------|----------------|3-----3-2-----2-|0-----0---------|
|----------------|----------------|----------------|--------3-----3-|

 |   |   |   |    |   |   |   |    |   |   |   |    |   |   |   |    
|----------------|----------------|0-----0---------|----------------|
|3-----3-2-----2-|0-----0---------|--------3-----3-|2-----2-0-----0-|
|----------------|--------3-----3-|----------------|----------------|
|----------------|----------------|----------------|----------------|

 |   |   |   |    |   |   |   |    |   |   |   |    |   |   |   |    
|----------------|----------------|----------------|--------0-------|
|----------------|----------------|3-----3-2-----2-|0-----0---------|
|3-----3-2-----2-|0-----0---------|----------------|----------------|
|----------------|--------3-----3-|----------------|--------------3-|

 |   |   |   |    |   |   |   |    |   |   |   |    |   |   |   |    
|----------------|----------------|----------------|----------------|
|----------------|----------------|3-----3-2-----2-|0-----0---------|
|3-----3-2-----2-|0-----0---------|----------------|--------3-----3-|
|----------------|--------3-----3-|----------------|----------------|

 |   |   |   |    |   |   |   |    |   |   |   |    |   |   |   |    
|0-----0---------|----------------|----------------|------------0---|
|--------3-----3-|2-----2-0-----0-|------------3---|----------------|
|----------------|----------------|3-----3---------|3-----3---------|
|----------------|----------------|--------1-------|--------3-----3-|

 |   |   |   |    |   |   |   |    |   |   |   |    |   |   |   |    
|----------------|----------------|----------------|----------------|
|----------------|----------------|3-----3-2-----2-|0-----0---------|
|3-----3-2-----2-|0-----0---------|----------------|--------3-----3-|
|----------------|--------3-----3-|----------------|----------------|

 |   |   |   |    |   |   |   |    |   |   |   |    |   |   |   |    
|0-----0---------|----------------|----------------|0-----0---------|
|--------3-----3-|2-----2-0-----0-|--------3-----3-|----------------|
|----------------|----------------|3-----3---------|----------------|
|----------------|----------------|----------------|--------3---3---|

 |   |   |   |    |   |   |   |    |   |   |   |    |   |   |   |    
|----------------|----------------|----------------|----------------|
|----------------|----------------|3-----3-2-----2-|0-----0---------|
|3-----3-2-----2-|0-----0---------|----------------|--------3-----3-|
|----------------|--------3-----3-|----------------|----------------|

 |   |   |   |    |   |   |   |    |   |   |   |    |   |   |   |    
|0-----0---------|----------------|----------------|----------------|
|--------3-----3-|2-----2-0-----0-|----------------|----------------|
|----------------|----------------|3-----3-2-----2-|0-----0---------|
|----------------|----------------|----------------|--------3-----3-|

 |   |   |   |    |   |   |   |    |   |   |   |    |   |   |   |    
|----------------|----------------|0-----0---------|----------------|
|3-----3-2-----2-|0-----0---------|--------3-----3-|2-----2-0-----0-|
|----------------|--------3-----3-|----------------|----------------|
|----------------|----------------|----------------|----------------|

 |   |   |   |    |   |   |   |    |   |   |   |    |   |   |   |    
|----------------|----------------|----------------|--------0-------|
|----------------|----------------|3-----3-2-----2-|0-----0---------|
|3-----3-2-----2-|0-----0---------|----------------|----------------|
|----------------|--------3-----3-|----------------|--------------3-|

 |   |   |   |    |   |   |   |    |   |   |   |    |   |   |   |    
|----------------|----------------|----------------|----------------|
|----------------|----------------|3-----3-2-----2-|0-----0---------|
|3-----3-2-----2-|0-----0---------|----------------|--------3-----3-|
|----------------|--------3-----3-|----------------|----------------|

 |   |   |   |    |   |   |   |    |   |   |   |    |   |   |   |    
|0-----0---------|----------------|----------------|------------0---|
|--------3-----3-|2-----2-0-----0-|------------3---|----------------|
|----------------|----------------|3-----3---------|3-----3---------|
|----------------|----------------|--------1-------|--------3-----3-|

 |   |   |   |    |   |   |   |    |   |   |   |    |   |   |   |    
|----------------|----------------|----------------|----------------|
|----------------|----------------|3-----3-2-----2-|0-----0---------|
|3-----3-2-----2-|0-----0---------|----------------|--------3-----3-|
|----------------|--------3-----3-|----------------|----------------|

 |   |   |   |    |   |   |   |    |   |   |   |    |   |   |   |    
|0-----0---------|----------------|----------------|----0-----------|
|--------3-----3-|2-----2-0-----0-|--------3-----3-|----------------|
|----------------|----------------|3-----3---------|----------------|
|----------------|----------------|----------------|3-------3-----3-|

 |   |   |   |    |   |   |   |    |   |   |   |    |   |   |   |    
|----------------|----------------|----------------|----------------|
|----------------|----------------|3-----3-2-----2-|0-----0---------|
|3-----3-2-----2-|0-----0---------|----------------|--------3-----3-|
|----------------|--------3-----3-|----------------|----------------|

 |   |   |   |    |   |   |   |    |   |   |   |    |   |   |   |    
|0-----0---------|----------------|----------------|----------------|
|--------3-----3-|2-----2-0-----0-|----------------|----------------|
|----------------|----------------|3-----3---------|3-----3---------|
|----------------|----------------|--------1-----1-|--------1-----1-|

 |   |   |   |    |   |   |   |    |   |   |   |    |   |   |   |    
|----------------|----------------|----------------|----------------|
|----3-----------|----------------|----------------|----------------|
|----------------|------1-3---1---|3-------3-------|3---------------|
|1-------1-----1-|4---------------|------------3---|----------------|

 |   |   |   |    |   |   |   |    
|----------------|----------------|
|----------------|----------------|
|3---------------|----------------|
|----------------|----------------|
            
Submit corrections


        A Whiter Shade Of Pale lessons Hard to play? Try these video lessons and learn fast A Whiter Shade Of Pale lessons
        
↑ Back to top | Tablatures and chords for acoustic guitar and electric guitar, ukulele, drums are parodies/interpretations of the original songs. You may use it for private study, scholarship, research or language learning purposes only